Kiss - Mr Speed Chords & Tabs

 

Mr Speed Chords & Tabs

Kiss Chords & Tabs

Version: 1 Type: Tab 0 ratings
1 star 2 stars 3 stars 4 stars 5 stars
comments

Mr Speed Tab

here's a easy, accurate way to do it.
play twice
----------------------------------------------------------------------
----------12--------------12----------------------------------------------
9-9-11(b1)--11-9-7-7-9(b1)--9-7--2-2-4-2-(pb1)4-2-6-4-6-4-(pb1)6-4----------------------------------------------
9-9--------------7-7-------------2-2-4-2------4-2-6-4-6-4------6-4--------------------
----------------------------------------------------------------------
----------------------------------------------------------------------
play twice
----------------------------------------------------------------------
10-9-10-9-10-10-9-10---------------------------------------------------------------
9--9-9--9-9--9--9-9--(pb1)11-9------------------------------------------------
11-9-11-9-11-11-9-11---------------------------------------------------------------
----------------------------------------------------------------------
----------------------------------------------------------------------

----------------------------------------------------------------------
10-9-10---7------10----9-10-9-10-9-10-10-9-10-----------------------------------------------
9--9-9----7-9(b1)--9-7-9-9--9-9--9-9--9--9-9--(pb1)11-9-------------------------------------------
11-9-11---7------------9-11-9-11-9-11-11-9-11---------------------------------------------
----------------------------------------------------------------------
----------------------------------------------------------------------
u need lovin...
[ Tab from: http://www.guitartabs.cc/tabs/k/kiss/mr_speed_tab.html ]
----------------------------------------------------------------------
10-9-10---7------10----8-7-8-7-8-8-7-8------------------------------------------------
9--9-9----7-9(b1)--9-7-7-7-7-7-7-7-7-7-------------------------------------
11-9-11---7------------9-7-9-7-9-9-7-9---------------------------------------------
----------------------------------------------------------------------
----------------------------------------------------------------------
yeah its true...

----------------------------------------------------------------------
----------12--------------12----------------------------------------------
9-9-11(b1)--11-9-7-7-9(b1)--9-7-------------------------------------------------
9-9--------------7-7------------------------------------------------
----------------------------------------------------------------------
----------------------------------------------------------------------
when i laugh...
i dont know this next part so i improv on lead:
----------------------------------------------------------------------
----------15~~~~------------------------------------------------------------
14-12^---------------------------------------------------------------------
-------15---------------------------------------------------------------
----------------------------------------------------------------------
----------------------------------------------------------------------
the solo on the other tab is pretty correct, so look at that one.
that's it, baisically. i love this song.
Comments