Kiss - Love Gun Chords & Tabs

 

Love Gun Chords & Tabs

Kiss Chords & Tabs

Version: 7 Type: Tab

Love Gun Tab

 This took a lot of work. I think this is the right way to play it. I might be wrong but 
and please rate!!! Feel free to correct me and e-mail me at sk8boi101@hotmail.com
                          Love Gun by Kiss

           Intro

 e-----------------------|--------------------|-----------------------|
 B-----------------------|--------------------|-----------------------|
 G-9-9-9-9-----9-9-9-9---|--9-9-9-9-9-9-9-----|----9------------------|
 D-9-9-9-9-----9-9-9-9---|--9-9-9-9-9-9-9-----|----9------------------|
 A-7-7-7-7-----7-7-7-7---|--7-7-7-7-7-7-7-----|----7------------------|
 E-----------------------|--------------------|-----------------------|

 e-----------------------|--------------------|-----------------------|
 B-----------------------|--------------------|-----------------------|
 G-7--9--7---------------|--------------------|-----------------------|
 D-5--7--5--7------5-----|--------------------|-----7/9----7-----9----|
 A----------5------3-----|--------------------|-----5/7----5-----7----|
 E-----------------------|--------------------|------------------0----|
           First Verse
 e-----------------------|--------------------|-----------------------|
 B-----------------------|--------------------|-----------------------|
 G-----7-----------------|--------------------|-----7-----------------|
 D-----5------7----------|---9----------------|-----5------------5----|
 A------------5----------|---7----------------|------------5-----3----|
 E-----------------------|--------------------|------------3----------|

 e-----------------------|--------------------|-----------------------|
 B-----------------------|--------------------|-----------------------|
 G-----------------------|--------------------|-----------------------|
 D-----5-----------------|-----7--------------|--------9--------------|
 A-----3-----------------|-----5--------------|--------7--------------|
 E-----------------------|--------------------|--------0--------------|

 e-----------------------|--------------------|-----------------------|
 B----8------------------|--------------------|----8------------------|
 G----7------------------|----7---------------|----7------------------|
 D----9------------------|----5------7--------|----9------------------|
 A----7------------------|-----------5--------|----7------------------|
 E----0------------------|--------------------|----0------------------|

 e-----------------------|--------------------|-----------------------|
 B-----------------------|--------------------|----8------------------|
 G----7------------------|--------------------|----7------------------|
 D----5------7-----------|---5-------------7--|----9------------------|
 A-----------5-----------|---3-------------5--|----7------------------|
 E-----------------------|--------------------|----0------------------|
       Pre-Chorus
 e-----------------------|--------------------|-----------------------|
 B-----------------------|--------------------|----8------------------|
 G-----------------------|----7---------------|----7------------------|
 D----7------------------|----7---------------|----9------------------|
 A----7------------------|----5---------------|----7------------------|
 E----5------------------|--------------------|----0------------------|

 e-----------------------|--------------------|-----------------------|
 B-----------------------|--------------------|-----------------------|
 G------------------7----|-9-9-9-9--9-9-9-9---|---9-9-9-9-9-9-9-------|
 D----7-------------7----|-9-9-9-9--9-9-9-9---|---9-9-9-9-9-9-9-------|
 A----7-------------5----|-7-7-7-7--7-7-7-7---|---7-7-7-7-7-7-7-------|
 E----5------------------|--------------------|-----------------------|
       Chorus
 e-----------------------|--------------------|-----------------------|
 B-----------------------|--------------------|-----------------------|
 G----9------------------|-7--9--7------------|--------------------9--|
 D----9------------------|-5--7--5--7--5------|------7/9---7-------9--|
 A----7------------------|----------5--3------|------5/7---5-------7--|
 E-----------------------|--------------------|-----------------------|

 e-----------------------|--------------------|-----------------------|
 B-----------------------|--------------------|-----------------------|
 G--7--9--7--------------|--------------------|-----9-----------------|
 D--5--7--5--7--5--------|-----7/9---7--------|-----9-----------------|
 A-----------5--3--------|-----5/7---5--------|-----7-----------------|
 E-----------------------|--------------------|-----------------------|
[ Tab from: http://www.guitartabs.cc/tabs/k/kiss/love_gun_tab_ver_7.html ]
 e-----------------------|--------------------|-----------------------|
 B-----------------------|--------------------|-----------------------|
 G--7--9--7--------------|--------------------|-----9-----------------|
 D--5--7--5--7--5--------|-----7/9---7--------|-----9-----------------|
 A-----------5--3--------|-----5/7---5--------|-----7-----------------|
 E-----------------------|--------------------|-----------------------|

 e-----------------------|--------------------|-----------------------|
 B-----------------------|--------------------|-----------------------|
 G--7--9--7--------------|--------------------|-----------------------|
 D--5--7--5--7--5--------|-----7/9---7--------|-----------------------|
 A-----------5--3--------|-----5/7---5--------|-----------------------|
 E-----------------------|--------------------|-----------------------|

                    Repeat Verse 1 and the the Chorus
     Interlude
 e-----------------------|--------------------|-----------------------|
 B-----------------------|--------------------|-----------------------|
 G-----9--9--9--9--------|-----9--9--9--9-----|-9--9--9--9--9--9--9---|
 D-----9--9--9--9--------|-----9--9--9--9-----|-9--9--9--9--9--9--9---|
 A-----7--7--7--7--------|-----7--7--7--7-----|-7--7--7--7--7--7--7---|
 E-----------------------|--------------------|-----------------------|
    Lead Over Rhythm
 e--------------------------------------------------------------------|
 B----------------------------------------------------------15--15-17-|
 G----------------------------------------12--12-14-12-14-16--16------|
 D-------------------------12--12-14-12-14--14------------------------|
 A-10--10-12-10-12-14-12-14--14---------------------------------------|
 E---12---------------------------------------------------------------|

 e---------------17--17-19-17--19-17--22-19--22-----------------------|
 B-15-17-20-17-20--20--------20-----20--------------------------------|
 G--------------------------------------------------------------------|
 D--------------------------------------------------------------------|
 A--------------------------------------------------------------------|
 E--------------------------------------------------------------------|
    Chorus
 e-----^22~~~~~---------|--------^22----(22)--|-^14-^14-^14-^14-(14)-12----|
 B----------------------|---------------------|-------------------------14-|
 G----------------------|---------------------|----------------------------|
 D----------------------|---------------------|----------------------------|
 A----------------------|---------------------|----------------------------|
 E----------------------|---------------------|----------------------------|
   Solo Over Chorus
 e--------12-------12-15-12-14-12--12------12-----12-15-12-14-12--12------|
 B-----12-------12---------------15------12-----12--------------15--------|
 G-^14------^14-----------------------^14----^14--------------------------|
 D------------------------------------------------------------------------|
 A------------------------------------------------------------------------|
 E------------------------------------------------------------------------|

 e--------12-------12-15-12-14-12--12------12-----12-15-12-14-12--12------|
 B-----12-------12---------------15------12-----12--------------15--------|
 G-^14------^14-----------------------^14----^14--------------------------|
 D------------------------------------------------------------------------|
 A------------------------------------------------------------------------|
 E------------------------------------------------------------------------|

 e--------12-------12-15-12-14-12--12------12-----12-15-12-14-12--12------|
 B-----12-------12---------------15------12-----12--------------15--------|
 G-^14------^14-----------------------^14----^14--------------------------|
 D------------------------------------------------------------------------|
 A------------------------------------------------------------------------|
 E------------------------------------------------------------------------|

 e--------12-------12-15-12-14-12--12-----12-----12-----12-----12---------|
 B-----12-------12---------------15-----12-----12-----12-----12-----------|
 G-^14------^14----------------------^14----^14----^14----^14-------------|
 D------------------------------------------------------------------------|
 A------------------------------------------------------------------------|
 E------------------------------------------------------------------------|
    Outro
 e-----12-----------------------------------------------------------------|
 B-------15-12-15-12--12--------------------------------------------------|
 G------------------14--14-12-14-12-11------------------------------------|
 D------------------------------------------------------------------------|
 A------------------------------------------------------------------------|
 E------------------------------------------------------------------------|

         Repeat Once and Fade