Kiss - Love Em Leave Em Chords & Tabs

 

Love Em Leave Em Chords & Tabs

Kiss Chords & Tabs

Version: 2 Type: Bass Tab 0 ratings
1 star 2 stars 3 stars 4 stars 5 stars
comments

Love Em Leave Em Bass Tab

   
Song: LOVE 'EM LEAVE 'EM
Artist: KISS
Album: ROCK AND ROLL OVER
--------------------
                                                                                    
Transcribed by Emil Ortenmark, kfemil@telia.com

Tuned down 1/2-step

Comments: Not much to it, just grab a pick and dig in hard.


Key:
/    = slide up
\    = slide down
b    = bend (whole step)
b^   = bend (1/2 step)
b^^  = bend (1 1/2 steps)
pb   = pre-bend
r    = release-bend
t    = tap with righthand finger
h    = hammer-on
p    = pull-off
~    = Vibrato
*    = Natural Harmonic
#(#) = Trill
x    = Dead notes (no pitch)
P.M. = Palm mute (- -> underneath indicates which notes)
Tp   = Tap w\plectrum




Rhythm Fig. 1
                                                                
Gb|----------------------------------------------|
Db|----------------------------------------------|
Ab|------0--------0----------0--------0----------|
Eb|----------------------------------------------|



Rhythm Fig. 2a
                                                                               
Gb|----------------------------------------------|
Db|----------------------------------------------|
Ab|--0-------------------------------------------|
Eb|-----------3--3-------------------------------|



[ Tab from: http://www.guitartabs.cc/tabs/k/kiss/love_em_leave_em_btab_ver_2.html ]
Rhythm Fig. 2b
                                                                                
Gb|----------------------------------------------|
Db|----------------------------------------------|
Ab|--0-------------------------------------------|
Eb|-----------3--3----0--------------------------|



Rhythm Fig. 3
                                                                   
Gb|----------------------------------------------|
Db|----------------------------------------------|
Ab|--------2----4----5------------4----5----7----|
Eb|--0--0-------------------0--0-----------------|



Rhythm Fig. 4
                                                                               
Gb|----------------------------------------------|
Db|----------------------------------------------|
Ab|--0-------------------------------------------|
Eb|-------------------------------3--2-----------|



Rhythm Fig. 5a
                                                                               
Gb|----------------------------------------------|
Db|----------------------------------------------|
Ab|--0-------0-0--------2----------------2-3-5---|
Eb|--------------------------------3-------------|



Rhythm Fig. 5b

Gb|----------------------------------------------|
Db|----------------------------------------------|
Ab|--0-------0-0-------------------5-5-----------|
Eb|---------------------3-3----------------------|

Comments