Kiss - I Want You Chords & Tabs

 

I Want You Chords & Tabs

Kiss Chords & Tabs

Version: 1 Type: Bass Tab 0 ratings
1 star 2 stars 3 stars 4 stars 5 stars
comments

I Want You Bass Tab

I want you by Kiss
Standard Tuning

(Intro)
G:------|
D:------|
A:2----4|
E:------|

(Chorus)
G:---------|---------|---------|---------|
D:---------|-------4-|---------|---------|  x2
A:6----6--6|4-4-4----|6----6--6|-654-----|
E:---------|---------|---------|-----654-|

G:---------|---------|---------|---------|
D:---------|---------|---------|---------|  x2
A:---------|---------|---------|---------|
E:2--------|4--------|6-6-6-6-6|6-6-6-6-6|

G:---------|---------|---------|---------|
D:---------|---------|---------|---------|
A:---------|---------|---------|---------|
E:2--------|4--------|7--------|6--------|

G:---------|---------|---------|---------|
D:---------|---------|---------|---------|
A:---------|---------|---------|---------|
E:4--------|2--------|6--------|---------|

(Chorus)
G:---------|---------|---------|---------|
D:---------|-------4-|---------|---------|  x2
A:6----6--6|4-4-4----|6----6--6|-654-----|
E:---------|---------|---------|-----654-|

G:---------|---------|---------|---------|
D:---------|---------|---------|---------|  x2
A:---------|---------|---------|---------|
E:2--------|4--------|6-6-6-6-6|6-6-6-6-6|

G:---------|---------|---------|---------|
D:---------|---------|---------|---------|
A:---------|---------|---------|---------|
E:2--------|4--------|7--------|6--------|

G:---------|---------|---------|---------|
D:---------|---------|---------|---------|
A:---------|---------|---------|---------|
E:4--------|2--------|6--------|---------|
[ Tab from: http://www.guitartabs.cc/tabs/k/kiss/i_want_you_btab.html ]
(Chorus)
G:---------|---------|---------|---------|
D:---------|-------4-|---------|---------|  x2
A:6----6--6|4-4-4----|6----6--6|-654-----|
E:---------|---------|---------|-----654-|

G:------------------------------------------------|
D:------------------------------------------------|  x3
A:-6-6-6-6--6---6-6-6-6--6---6-4---6-6-6-6--6-----|
E:---------------------------------------------4-7|

G:------------------------------------------------|
D:------------------------------------------------|
A:-6-6-6-6--6---6-6-6-6--6-4---6-6-6-6--6--654----|
E:---------------------------------------------654|

G:---------|---------|---------|---------|
D:---------|---------|---------|---------|
A:---------|---------|---------|---------|
E:2--------|4--------|7--------|6--------|

G:---------|---------|---------|---------|
D:---------|---------|---------|---------|
A:---------|---------|---------|---------|
E:4--------|2--------|6--------|6--------|


G:---------|---------|---------|---------|
D:---------|---------|---------|---------|
A:---------|---------|---------|---------|
E:4--------|2--------|1--------|---------|

G:------|
D:------|
A:2----4|
E:------|

G:---------|---------|---------|---------|
D:---------|-------4-|---------|--4------|_  
A:6----6--6|4-4-4----|6----6--6|------4--| |
E:---------|---------|---------|---------| |_
                                           |_x4
G:---------|---------|---------|---------| |
D:---------|-------4-|---------|---------|_|   
A:6----6--6|4-4-4----|6----6--6|-654-----|
E:---------|---------|---------|-----646-|

Thanks, Please rate after you learn it.
Tabbed by:
_TheBassist01_
Comments