Kiss - I Stole Your Love Chords & Tabs

 

I Stole Your Love Chords & Tabs

Kiss Chords & Tabs

Version: 3 Type: Tab 0 ratings
1 star 2 stars 3 stars 4 stars 5 stars
comments

I Stole Your Love Tab

I Stole Your Love
KISS
From The CD: Love Gun 
Tuned down 1/2 step

Listen To The Song, These are just the riffs.


                                   <--------------INTRO ONLY------------------->
   Gtr.1
eb|-------------------------------|--------------------------------------------|
Bb|-------------------------------|---------------------------4----------------|
Gb|-6--6p4-----4---6p4-----4--9---|-6--6p4----4---6p4------2--4----------------|
Db|-6--6p4--6--4---6p4--6--4--9---|-6--6p4--6-4---6p4--6---2--4----------------|
Ab|---------6-----------6---------|---------6----------6-----------------------|
Eb|-------------------------------|--------------------------------------------|
  |                                                                            | x4
  |Gtr.2                                                                       |
eb|----------------------------------------------------------------------------|
Bb|----------------------------------------------------------------------------|
Gb|-6~-------------------------------------------------------------------------|
Db|-6~-------------------------------------------------------------------------|
Ab|-4~-------------------------------------------------------------------------|
Eb|----------------------------------------------------------------------------|



Gtr. 1&2
eb|---------------------------------------------------------------------------|
Bb|---------------------------------------------------------------------------|
Gb|---------------------------------------------------------------------------|
Db|-9~-------11--------11-----------------------------------------------------|
Ab|-7~--------9----9----9-----------------------------------------------------|
Eb|----------------7----------------------------------------------------------|

eb|---------------------------------------------------------------------------|
Bb|---------------4-----------------------------------------------------------|
Gb|-2-------------4-----------------------------------------------------------|
Db|-2-------------4-----------------------------------------------------------|
Ab|-0-------------2-----------------------------------------------------------|
Eb|---------------------------------------------------------------------------|
[ Tab from: http://www.guitartabs.cc/tabs/k/kiss/i_stole_your_love_tab_ver_3.html ]
eb|---------------------------------------------------------------------------|
Bb|---------------------------------------------------------------------------|
Gb|-2--4p2----2---6p4----4----------------------------------------------------|
Db|-2--2-2--4-2---4-4--6-4----------------------------------------------------|
Ab|-0-------------------------------------------------------------------------|
Eb|---------------------------------------------------------------------------|

Solo

Guitar 1
eb|---------------------------------------------------------------------------|
Bb|---------------------------------------------------------------------------|
Gb|-(6b^)-6b^--4h6----------------------------------------1--1/4~-------------|
Db|------------2--4/6\4-2-----------2h4p2\1--6p4-6p4--6-----------------------|
Ab|------------------------6-4-2p4--------------------------------------------|
Eb|---------------------------------------------------------------------------|

Guitar 2
eb|----------------------------------9----------------------------------------|
Bb|-11b-11b--9b-r9----------9------9-9----12-12p9h12----9-12b-12b-------------|
Gb|-----------------11-9-11----11b-------------------11-----------------------|
Db|---------------------------------------------------------------------------|
Ab|---------------------------------------------------------------------------|
Eb|---------------------------------------------------------------------------|


Eb|---------------------------------------------------12p11p9--12p11p9----|
Bb|-------------------------------------9h12p9h12-----------------------------|
Gb|------------------------9h11p9h11------------------------------------------|
Db|-------------9h11p9h11-----------------------------------------------------|
Ab|--9h11p9h11----------------------------------------------------------------|
Eb|---------------------------------------------------------------------------|


Eb|--12b--12--9---------------19\---------------------------------------------|
Bb|--------------12b--12--9---19\---------------------------------------------|
Gb|---------------------------------------------------------------------------|
Db|---------------------------------------------------------------------------|
Ab|---------------------------------------------------------------------------|
Eb|---------------------------------------------------------------------------|
Comments