Kiss - Got To Choose Chords & Tabs

 

Got To Choose Chords & Tabs

Kiss Chords & Tabs

Version: 3 Type: Bass Tab 0 ratings
1 star 2 stars 3 stars 4 stars 5 stars
comments

Got To Choose Bass Tab

Got to Choose by Kiss
Tabbed in Standard Tuning

G:------------
D:------------
A:-4-4-4-4-4-4  (From 0.14-0.20)
E:------------

G:--------------
D:--------------
A:-4-4-4-4---1-2
E:---------4----

G:-----------------
D:-----------------  X12
A:4-4----1-2--1----
E:----4---------2-2

G:-------------------------------------
D:-------------------------------------
A:------------------------------------4
E:-5--0-4-5--0-7--0-4-5--0-7--0-4-5-0--

G:------------------------------------------------
D:------------------------------------------------
A:-----------------------------------------------4
E:-5--0-4-5-0-5--0-4-5--0-7--0-4-5--0-7--0-4-5-0--

G:-----------------
D:-----------------  X8
A:4-4----1-2--1----
E:----4---------2-2
[ Tab from: http://www.guitartabs.cc/tabs/k/kiss/got_to_choose_btab_ver_3.html ]
G:-------------------------------------
D:-------------------------------------  ________________
A:------------------------------------4                  |
E:-5--0-4-5--0-7--0-4-5--0-7--0-4-5-0--                  | 
                                                         | X 3
G:------------------------------------------------       |
D:------------------------------------------------_______|
A:-----------------------------------------------4
E:-5--0-4-5-0-5--0-4-5--0-7--0-4-5--0-7--0-4-5-0--

G:--------------
D:--------------
A:--------------
E:------9/------

G:------------
D:------------
A:-4-4-4-4-4-4  (From 3.08-3.15)
E:------------

G:--------------
D:--------------
A:-4-4-4-4---1-2
E:---------4----

G:-----------------
D:-----------------  X3
A:4-4----1-2--1----
E:----4---------2-2

G:---------------------------
D:---------------------------
A:-4-4----1-2-----1-2-----1-2
E:-----4-------4-------4-----

G:-------------------------
D:-------------------------
A:-2-2------2-2------2-2--4
E:-------------------------

Thanks, please rate when you're done
Tabbed by:
_TheBassist01_
Comments