Kiss - Goin Blind Chords & Tabs

 

Goin Blind Chords & Tabs

Kiss Chords & Tabs

Version: 1 Type: Tab 0 ratings
1 star 2 stars 3 stars 4 stars 5 stars
comments

Goin Blind Tab

Goin' Blind by KISS
From the album Hotter Than Hell
--------------------------------------------------------------------



                                                                     "And I 
e:---------------------------------------------------------------------------|
B:----------------2~---------------------------------------------------------|
G:--6~------------3~----------------------3---5----------------------6-------|
D:--6~-----4~-----3~------6~--6---3---5---1---3-------------3~-------6-------|
A:--4~-----4~-----1~------6~--6---1---3--------------3------3~-------4-------|
E:--4~-----2~-------------4~--4-------------------1--1---1--1~-------4-------|


                                                                       

  know..."
e:--------------------------------------------------------------------|
B:----------2----2-------2---2----------------------------------------|
G:----------3--3--3----3--3--3--------------------3---5---------------|
D:--4-------3-3-3--3--3-3--3-3----6---6---3---5---1---3-----------3~--|
A:--4-------1-------1--------1----6---6---1---3-------------3-----3~--|
E:--2-----------------------------4---4------------------1--1--1--1~--|
               or similar pattern



   "Cause I think...."
e:--------------------6-4-------4---------------------9-8-6----6-9-6---------|
B:------------------------6-4-6---6-4-6----------------------9--------9-6----|
G:---3-----------------------------------3-----------------------------------|
D:---3-----6----3------------------------3----6----3-------------------------|
A:---1-----6----3------------------------1----6----3-------------------------|
E:---------4----1-----------------------------4----1-------------------------|


                                                     
[ Tab from: http://www.guitartabs.cc/tabs/k/kiss/goin_blind_tab.html ]
e:----------------------------------------------------------------|
B:----------------2~----------------------------------------------|
G:--6~------------3~----------------------3---5-------------------|
D:--6~-----4~-----3~------6~--6---3---5---1---3-------------3~----|
A:--4~-----4~-----1~------6~--6---1---3--------------3------3~----|
E:--4~-----2~-------------4~--4-------------------1--1---1--1~----|




   solo
e:--------------------------------16b(18)~-16b~-16b~-16b---------------------|
B:-----16b(18)-16b/16-14~--16-14-------------------------14/16/14--14/16b-16b|
G:---------------------------------------------------------------------------|
D:---------------------------------------------------------------------------|
A:---------------------------------------------------------------------------|
E:---------------------------------------------------------------------------|





e:--------------------------------------------16---------------------16b~-16b|
B:-16b-16b-16b-16b-16b-16b-14------------16b~~~~16~~-16/14----14-------------|
G:-----------------------------15-15b~---------------------13----13----------|
D:---------------------------------------------------------------------------|
A:---------------------------------------------------------------------------|
E:---------------------------------------------------------------------------|


                                                                         


e:~-16b~-16b/16----------------------------------------------------------|
B:---------------14/16/14-14/16b--16b/16-16b/16-14-----------------------|
G:--------------------------------------------------13-15b--13-15b/15/15b|
D:-----------------------------------------------------------------------|
A:-----------------------------------------------------------------------|
E:-----------------------------------------------------------------------|
Comments