Kiss - God Of Thunder Chords & Tabs

 

God Of Thunder Chords & Tabs

Kiss Chords & Tabs

Version: 2 Type: Tab 1 rating
1 star 2 stars 3 stars 4 stars 5 stars
comments

God Of Thunder Tab

This song's pretty simple if you actually sit down and listen to it.
They've got it tuned down half a step.
This is just the first part but I'll have the rest up soon. C-ya
Intro

---------------------------------------------------------------------
---------------------------------------------------------------------
---------------------------------------------------------------------
---------------------------5---------------5---5--7-7pull up--5-7------------------
-----7---5-5h7-----7---5-7-------7---5-5h7---7-------------------------------
-0-0---7-------0-0---7-------0-0---7---------------------------------

---------------------------------------------------------------------
---------------------------------------------------------------------
---------------------------------------------------------------------
---------------------------5---------------5---5--7-7pull up--5-7-------------------
-----7---5-5h7-----7---5-7-------7---5-5h7---7--------------------------------------
-0-0---7-------0-0---7-------0-0---7------------------------------------------
[ Tab from: http://www.guitartabs.cc/tabs/k/kiss/god_of_thunder_tab_ver_2.html ]
-----------------------------------------------------------------------
----------------------------------------------------------------------
----------------------------------------------------------------------
---------------------------5---------------------------------------------
-----7---5-5h7-----7---5-7-------7---5-5h7-----7---5h7-5h7--------------------------------
-0-0---7-------0-0---7-------0-0---7-------0-0---7--------------------------------
Chorus
----------------------------------------------------------------------
----------------------------------------------------------------------
----------------------------------------------------------------------
---------------------------5---------------5---5-7-7pul up-5-7---------------------
-----7---5-5h7-----7---5-7-------7---5-5h7---7--------------------------------------
-0-0---5-------0-0---7-------0-0---7-------------------------------------------

----------------------------------------------------------------------
----------------------------------------------------------------------
----------------------------------------------------------------------
---------------------------5-------------------------------------------
-----7---5-5h7-----7---5-7-------7---5-5h7-----7---5h7-5h7--------------------------------
-0-0---5-------0-0---7-------0-0---7-------0-0---5--------------------
(play twice)

Comments