Kiss - Firehouse Chords & Tabs

 

Firehouse Chords & Tabs

Kiss Chords & Tabs

Version: 8 Type: Tab 0 ratings
1 star 2 stars 3 stars 4 stars 5 stars
comments

Firehouse Tab

Firehouse by KISS
From the album KISS
Transcriber: Unknown
--------------------------------------------------------------------



  intro (rhythm 1)
e:---------------------------------------------------------------------------|
B:---------------------------------------------------------------------------|
G:-----2--2--4--2--2--2--2------7--7--7--7--7--7--7----9--999999-------2--2--|
D:-----2--4--6--4--2--4--2------7--9--7--9--7--9--7----7--777777-------2--4--|
A:--------------------------------------------------------000000-------------|
E:---------------------------------------------------------------------------|




                                                      rhythm 2
e:---------------------------------------------------------------------------|
B:---------------------------------------------------------------------------|
G:4--2--2--2--2------7--7--7--7--7--7--7-------------------------------------|
D:6--4--2--4--2------7--9--7--9--7--9--7----2~~-------2---------------2------|
A:------------------------------------------0~~-------0--5--x--5--x---0--5--x|
E:-------------------------------------------------------3--0--3--0------3--0|




                                                                         "She
e:---------------------------------------------------------------------------|
B:----------878787--------------------------------------------878787---------|
G:----------777777---9~---------------------------------------777777---9~----|
D:----------979797---7~------2---------------2----------------979797---7~----|
A:--5--x-------------0~------0--5--x--5--x---0--5--x--5--x-------------0~----|
E:--3--0------------------------3--0--3--0------3--0--3--0-------------------|


                                                            

  'll adore you.."                 pre-chorus
e:------------------------------|--------------------------|
B:------------------878787------|--------------------------|
G:--22-----22-------777777---9~-|--5~----------3~----4-4-4-|
D:--22-----22-------979797---7~-|--5~----5~----3~----4-4-2-|
A:--00-----00----------------0~-|--3~----5~----1~----2-2-2-|
E:------------------------------|--------3~--------------0-|
    slide down       repeat


[ Tab from: http://www.guitartabs.cc/tabs/k/kiss/firehouse_tab_ver_8.html ]
   pre-chorus lead fill
e:---------------------------------------------------------------5-----6-----|
B:--11b(12)--11b(12)--b11-8--------------------------------------------------|
G:--------------------------10--10b(11)--10b(11)--b10-8-------6/7---7/8---8/9|
D:------------------------------------------------------10-------------------|
A:---------------------------------------------------------------------------|
E:---------------------------------------------------------------------------|


                                 
                                 
        "Get the firehouse...."
e:7---|-------------------------|
B:----|-------------------------|
G:--9-|-------------------------|
D:----|-------------------------|
A:----|-------------------------|
E:----|-------------------------|
        chorus-repeat rhythm 2



   "She's like fair weather..."
e:-----------------------------------------------3--|
B:-----------------------------------------------3--|
G:----4---4-4------------------------------------0--|
D:----4---4-4-----2---2-2-----3---3-3-----5--5---0--|
A:----2---2-2-----2---2-2-----3---3-3-----5--5---x--|
E:----------------0---0-0-----1---1-1-----3--3---3--|
  part before solo



  lead fill
e:--------------------------------------------|
B:-------------------------------------13b(15)|
G:--9b-7----11b-9----12b-10-----12b-10--------|
D:-------9--------9---------10----------------|
A:--------------------------------------------|
E:--------------------------------------------|




  solo
e:---------------------------------------------------------------------------|
B:---------------------------------------------------------------------------|
G:----7b-7b--7b-7b--7b-7b--7b-7b--7b-7b--7b-7b--7b-7b--7b-7b--5-5------------|
D:----------------------------------------------------------------7-------5-7|
A:--------------------------------------------------------------------5-7----|
E:---------------------------------------------------------------------------|
  over rythem 2




e:---------------------------------------------------------------------------|
B:---------------------------------------------------------------------------|
G:----5--5--5----------------------------------------------------------------|
D:--7---------7-5--7------------------------5-5--55-5--7~---5---5-5--55-5--7~|
A:---------------------77-7--66-6--3----5-7-------------------7--------------|
E:---------------------------------------------------------------------------|


                                     


e:-------------------------------------|
B:-------------------------------8b(10)|
G:----7b-7b--7b-7b--7b-7b--7b-5--------|
D:-------------------------------------|
A:-------------------------------------|
E:-------------------------------------|
Comments