Kiss - Firehouse Chords & Tabs

 

Firehouse Chords & Tabs

Kiss Chords & Tabs

Version: 2 Type: Tab 0 ratings
1 star 2 stars 3 stars 4 stars 5 stars
comments

Firehouse Tab



This song was acutally tabbed by my brother Diego Navaira
his qoutes on the tab.

"All the Fire House tabs were wrong, not only on this site, but all of the sites.
So I got mad   and figured it out."
                -Diego

Ok    here it is


½ step down




Intro

Guitar 1

E---------------------------------------------------------------------------------------
B---------------------------------------------------------------------------------------
G------------------------------------------2-4-2-4-2-4-2----------------------------
D--------2-2-4-2-6-2-4-2-2-2-4-2-----0-0-0-0-0-0-0---- 14--------------------
A--------0-0-0-0-0-0-0-0-0-0-0-0--------------------------12---------------------
E---------------------------------------------------------------------------------------

E---------------------------------------------------------------------------------------
B---------------------------------------------------------------------------------------
G------------------------------------------2-4-2-4-2-4-2----------------------------
D--------2-2-4-2-6-2-4-2-2-2-4-2-----0-0-0-0-0-0-0---- 14--------------------
A--------0-0-0-0-0-0-0-0-0-0-0-0--------------------------12---------------------
E---------------------------------------------------------------------------------------
 
Guitar 2

E---------------------------------------------------------------------------------------
B---------------------------------------------------------------------------------------
G--------------------------------------------7-b-9--b-9-b-9-b-9-b-9---------------
D---------------------------------------------------------------------------------------
A---------------------------------------------------------------------------------------
E---------------------------------------------------------------------------------------




















Main Riff 

Guitar 1

E----------------------------------------------------------------------------------------
B----------------------------------------------------------------------------------------
G-----------------------------------------------------------------------------------------
D----------------------------------------7---7---9---7---9---7-------------------------
A------7---5--2--5--7--5-2--5--------5---5---5---5---5---5----7------------------
E------5---3--0--3--5--3-0--3------------------------------------5-------------------            Repeat until Verse

Guitar 2

E----------------------------------------------------------------------------------------------
B-----------------------------------------------------------------------------------------------
G---------------------------------------12-11--12--11-12-11-------------- ---------------
D---------------------------------- ----12-12--12--12-12--12---------14-----------------
A--------------------------------------------------------------------------12---------------
E---------------------------------------------------------------------------------------------


(Verse)

Guitar 1

E------------------------------------------------------------------------------------------------
B------------------------------------------------------------------------------------------------
G------------------------------------------------------------------------------------------------
D---------------------------7--7--9--7--9--7--------------------------------------------------
A-----7----5-----7---5----5--5--5--5--5--5----------------------------7------------------- 
E-----5----3-----5---3----------------------- ----------------------------5-------------------       

Do this 2x

Guitar 2

E----------------------------------------------------------------------------------------------
B-----------------------------------------------------------------------------------------------
G---------------------------------------12-11--12--11-12-11-------------- ---------------
D-----------------2---2----2---2------12-12--12--12-12--12---------14-----------------
A-----------------3-p-0-h-3-p-0-----------------------------------------12---------------
E---------------------------------------------------------------------------------------------













Guitar 1

E-------------------------------------------------------------------------------------------------------------
B------------------------------------------------------------------------------------------------------------
G-----5------------------------------------------------------------------------------------------------------
D-----5--------------------------------------------------------5---------------------------------------------
A-----3--------------------------------------------------------5---------------------------------------------
E---------------------------------------------------------------3---------------------------------------------


Guitar 2

E------8-------------8---------------8------------------------------------------------------------------------------ 
B-----11-b-(13)---11-b-(13)-----11-b-(13)---8-----------8-------------8------------8------------------------
G------------------------------------------------------10-----10-b- (12)--10-b-(12)---10-b-(12)----8--------- 
D---------------------------------------------------------------------------------------------------------------10---
A---------------------------------------------------------------------------------------------------------------------
E---------------------------------------------------------------------------------------------------------------------

Guitar 1

E--------------------------------------------------------------------------------------
B--------------------------------------------------------------------------------------
G---3----------------------------------------------------------------------------------
D---3---------------------------------------------------------4---4----------------------
A---1---------------------------------------------------------2---2--------- 2-------
E--- -------------------------------------------------------------------------0--------


Guitar 2

E------------------------------------------------------------------------------------------------
B--------------11------------------9-------------------8---------------------------------------
G------------------------------------------------------------------------------------------------
D--7--s-12----------12-s--10-----------10-s--8-----------4---4---------------------------
A--------------------------------------------------------------2---2---------2-----------------
E-----------------------------------------------------------------------------0-----------------





 (Verse)
x4


















Guitar 1
[ Tab from: http://www.guitartabs.cc/tabs/k/kiss/firehouse_tab_ver_2.html ]
E-------------------------------------------------------------------------------------------------------------
B------------------------------------------------------------------------------------------------------------
G-----5------------------------------------------------------------------------------------------------------
D-----5--------------------------------------------------------5---------------------------------------------
A-----3--------------------------------------------------------5---------------------------------------------
E---------------------------------------------------------------3---------------------------------------------


Guitar 2

E------8-------------8---------------8------------------------------------------------------------------------------ 
B-----11-b-(13)---11-b-(13)-----11-b-(13)---8-----------8-------------8------------8------------------------
G------------------------------------------------------10-----10-b- (12)--10-b-(12)---10-b-(12)----8--------- 
D---------------------------------------------------------------------------------------------------------------10---
A---------------------------------------------------------------------------------------------------------------------
E---------------------------------------------------------------------------------------------------------------------

Guitar 1

E-------------------------------------------------------------------------------------------
B--------------------------------------------------------------------------------------------
G---3----------------------------------------------------------------------------------------
D---3---------------------------------------------------------------4---4------------------
A---1---------------------------------------------------------------2---2---------2-------
E--- -------------------------------------------------------------------------------0--------



Guitar 2

E---------------------------------------------------------------------------------------------
B--------------11--------------------13----------------15---------------------------------
G--------------------------------------------------------------------------------------------
D--7--s-12---------- --12-s-14------------14-s-16--------------4---4------------------
A--------------------------------------------------------------------2---2-------- 2--------
E-----------------------------------------------------------------------------------0---------













(Chorus) 

Guitar 1

E----------------------------------------------------------------------------------------
B----------------------------------------------------------------------------------------
G-----------------------------------------------------------------------------------------
D----------------------------------------7---7---9---7---9---7-------------------------
A------7---5--2--5--7--5-2--5--------5---5---5---5---5---5------------7-----------
E------5---3--0--3--5--3-0--3--------------------------------------------5-----------            

Guitar 2                                                                                                                 2x

E----------------------------------------------------------------------------------------------
B-----------------------------------------------------------------------------------------------
G---------------------------------------12-11--12--11-12-11-------------- ---------------
D---------------------------------------12-12--12--12-12--12-----------14-----------------
A----------------------------------------------------------------------------12---------------
E---------------------------------------------------------------------------------------------

(Post chorus)

E-----------------------------------------------------------------------------
B-----------------------------------------------------------------------------
G------------------------------------------------------------------------------
D-----------------------------------------------------------------------------
A----9--9--9-----2--2--2-----3--3--3-----5--5--5------------------------
E----7--7--7-----0--0--0-----1--1--1-----3--3--3------------------------



(Solo)

E----------------------------------------------------------------------------------
B---------------------------------------------------------------------------------
G-----7b9 7b9 x 7b9x7b9x 7b9x 7b9x7b9x7b9x7b9x7b9x7b9x------ 
D---------------------------------------------------------------------------------
A---------------------------------------------------------------------------------
E---------------------------------------------------------------------------------



E---------------------------------------------------------------------------------------------------
B---------------------------------------------------------------------------------------------------
G---7p5-----5-5--------------------------------5--5--5------------------------------------------
D---------7--------7--------------------5---7--------------7----5----7-------7----5--------7---
A-------------------------3---5----7-----------------------------------------------------7-------
E--------------------------------------------------------------------------------------------------









E-----------------------------------------------------------------------------------------------------------
B----------------------------------------------------------------------------------------------------------
G-----------------------------------------------------------------------------------------------------------
D---------------------5-------5---5-----5h-7----------------------5-------5---5-----5h-7--------------
A---3-----5--s--7-------7-------------------------3-----5--s--7-------7---------------------------------
E------------------------------------------------------------------------------------------------------------

E----------------------------------------------------------------------------------
B----------------------------------------8b(10)---------------------------------
G-----7b9 7b9 x 7b9x7b9x 7b9x-------------------------------------------- 
D---------------------------------------------------------------------------------
A---------------------------------------------------------------------------------
E---------------------------------------------------------------------------------


E----------------------------------------------
B-----8b10 8b10- 8b10-8b10 ------------
G-----------------------------------5--------
D---------------------------------------------         x4
A---------------------------------------------
E-------------------------------------------


E-----------------------------------------------------------------------------------------------
B-----------------------------------------------------------------------------------------------
G---------------------------5-5-------------------------5-5-----------------------------------
D-----------5---5---5h7-----------------5--5---5h7------------7p5-------------------------
A----5h7---------------------------5h7---------------------------------7p5-s3---------------
E-----------------------------------------------------------------------------------5------------


E------------------------------------------------------------------------------------------------------------
B-----------------------5--8-----8b10---8-----5----8----------------------------------------------------
G----------------5h7-------------------------------------------5x5-5-------------------------------------
D--------5h7-----------------------------------------------------------------------------------------------
A------------------------------------------------------------------------------------------------------------
E------------------------------------------------------------------------------------------------------------


(During solo  Guitar 1   plays  Main riff)

(Post Chorus)


Main riff  until end 
Comments