Kiss - Deuce Chords & Tabs

 

Deuce Chords & Tabs

Kiss Chords & Tabs

Version: 5 Type: Tab 0 ratings
1 star 2 stars 3 stars 4 stars 5 stars
comments

Deuce Tab

   
KISS IS THE BEST FUCKING BAND IN THE WHOLE WORLD!!!


Key:
/    = slide up
\    = slide down
b    = bend (whole step)
b^   = bend (1/2 step)
b^^  = bend (1 1/2 steps)
pb   = pre-bend
r    = release-bend
t    = tap with righthand finger
h    = hammer-on
p    = pull-off
~    = Vibrato
*    = Natural Harmonic
#(#) = Trill
**   = Artificial Harmonic
x    = Dead notes (no pitch)
P.M. = Palm mute (- -> underneath indicates which notes)
(\)  = Dive w\bar
(/)  = Release w\bar
Tp   = Tap w\plectrum


Intro
Eb|------------------------------------------------------------------|
Bb|------------------------------------------------------------------|
Gb|--14--14--14--14--14--14---------------10----12--12----12------12-|
Db|--14--14--16--14--16--14-----10--10----10----12--12h14-12------12-|
Ab|--0---0---0---0---0---0---0--10--10h12---------------------14-----|
Eb|------------------------------------------------------------------|
                                                            
Eb|------------------------------------------------------------------|
Bb|------------------------------------------------------------------|
Gb|--14--14--14--14--14--14---------------10-------------------------|
Db|--14--14--16--14--16--14-----10--10----10-------------------------|
Ab|--0---0---0---0---0---0---0--10--10h12---------------12\----------|
Eb|------------------------------------------------------------------|

Main Riff X4
Eb|------------------------------------------------------------------|
Bb|------------------------------------------------------------------|
Gb|--7-7-7--5-5-5-7-5--5--7-5----------------------------------------|
Db|--7-7-7--5-5-5-7-5--5--7-5-7-5------------------------------------|
Ab|--7-7-7--------------------7-5------------------------------------|
Eb|------------------------------------------------------------------|

Verse 1 X2
Eb|------------------------------------------------------------------|
Bb|------------------------------------------------------------------|
Gb|--------------7-7-7--5-5-5-7-5--5--7-5----------------------------|
Db|--2-----5--7--7-7-7--5-5-5-7-5--5--7-5-7-5------------------------|
Ab|--0-----3--5--7-7-7--------------------7-5------------------------|
Eb|------------------------------------------------------------------|

Pre-Chorus
Eb|------------------------------------------------------------------|
Bb|------------------------------------------------------------------|
Gb|------------------------------------------------------------------|
Db|--2-----5--7--5--2------------------------------------------------|
Ab|--0-----3--5--3--0------------------------------------------------|
Eb|------------------------2\14/2------------------------------------|

Chorus
Eb|------------------------------------------------------------------|
Bb|------------------------------------------------------------------|
Gb|------------------------------------------------------------------|
Db|----------------------------------------------3-----5-5-5---------|
Ab|--3----3--4-5-----------3----3--4-5-----------3-----5-5-5---------|
Eb|--------------3-4-5--0--------------3-4-5--0--1-----3-3-3---------|

Main Riff X4
Eb|------------------------------------------------------------------|
Bb|------------------------------------------------------------------|
Gb|--7-7-7--5-5-5-7-5--5--7-5----------------------------------------|
Db|--7-7-7--5-5-5-7-5--5--7-5-7-5------------------------------------|
Ab|--7-7-7--------------------7-5------------------------------------|
Eb|------------------------------------------------------------------|

Verse 2 X2
Eb|------------------------------------------------------------------|
Bb|------------------------88888888----88888888----------------------|
Gb|----------------------\9----------\9------------------------------|
Db|--------------2--4-5----------------------------------------------|
Ab|--0----2\10/------------------------------------------------------|
Eb|------------------------------------------------------------------|

Pre-Chorus
Eb|------------------------------------------------------------------|
Bb|------------------------------------------------------------------|
Gb|------------------------------------------------------------------|
Db|--------------2--4-5-7--------------------------------------------|
Ab|--0----2\10/------------------------------------------------------|
Eb|----------------------------2\14/2--------------------------------

Chorus
Eb|-----------------------------------------------------13---15-15-15|
Bb|----------------------------------------------------------15-15-15|
Gb|-------------------------------------------------\14--------------|
Db|------------------------------------------------------------------|
Ab|--3----3--4-5-----------3----3--4-5-------------------------------|
Eb|--------------3-4-5--0--------------3-4-5--0----------------------|

Solo                                                       
Eb|----------------------------------------5---5---------------------|
Bb|------------------------------------------------------------------|
Gb|--7b---7b---7b----7b-r7-7b-r7-7b-r7---7b--7b--7b---5h7p5h7p5h7p5h7|
Db|------------------------------------------------------------------|
Ab|------------------------------------------------------------------|
Eb|------------------------------------------------------------------|
[ Tab from: http://www.guitartabs.cc/tabs/k/kiss/deuce_tab_ver_5.html ]
Eb|----------------------------------------5---5---------------------|
Bb|------------------------------------------------------------------|
Gb|--7b---7b---7b----7b-r7-7b-r7-7b-r7---7b--7b--7b---5h7p5h7p5------|
Db|------------------------------------------------------------------|
Ab|------------------------------------------------------------------|
Eb|------------------------------------------------------------------|

Eb|-----------12b^^---12b^^~--12b^^~--12b^^~--10h12p10---------------|
Bb|-----10-----------------------------------------------------------|
Gb|--\11--11---------------------------------------------------------|
Db|------------------------------------------------------------------|
Ab|------------------------------------------------------------------|
Eb|------------------------------------------------------------------|

Eb|--8h10p8---------8---------8--------8--10p9p8-10p9p8--------------|
Bb|-----------10--------10---------10--------------------------------|
Gb|------------------------------------------------------------------|
Db|------------------------------------------------------------------|
Ab|------------------------------------------------------------------|
Eb|------------------------------------------------------------------|

Eb|--10p9p8-10p9p8--10b---10b-8h10p8----8----------------------------|
Bb|----------------------------------10---10b^^----10b^^-------------|
Gb|------------------------------------------------------------------|
Db|------------------------------------------------------------------|
Ab|------------------------------------------------------------------|
Eb|------------------------------------------------------------------|

Eb|------------------------------------------------------------------|
Bb|--8h10p8----8-----10p8--------------------------------------------|
Gb|---------9----------------9p7----7p5------------------------------|
Db|-----------------------------------------7p5----------------------|
Ab|------------------------------------------------------------------|
Eb|------------------------------------------------------------------|


Eb|--5---------------------------------------------------------------|
Bb|----8-5-----------------------------------------------------------|
Gb|--------8-7-5-----------------------------------------------------|
Db|--------------7-6-5-----------------------------------------------|
Ab|--------------------7-5-6-3~--3-4-5----------3--3-4-5-------------|
Eb|------------------------------------3-4-5--0----------3-4-5--0----|

Eb|-----13--15-15-15-------------------------------------------------|
Bb|---------15-15-15-------------------------------------------------|
Gb|--\14-------------------------------------------------------------|
Db|------------------------------------------------------------------|
Ab|------------------------------------------------------------------|
Eb|------------------------------------------------------------------|

Intro
Eb|------------------------------------------------------------------|
Bb|------------------------------------------------------------------|
Gb|--14--14--14--14--14--14---------------10----12--12----12------12-|
Db|--14--14--16--14--16--14-----10--10----10----12--12h14-12------12-|
Ab|--0---0---0---0---0---0---0--10--10h12---------------------14-----|
Eb|------------------------------------------------------------------|
                                                            
Eb|------------------------------------------------------------------|
Bb|------------------------------------------------------------------|
Gb|--14--14--14--14--14--14---------------10-------------------------|
Db|--14--14--16--14--16--14-----10--10----10-------------------------|
Ab|--0---0---0---0---0---0---0--10--10h12---------------12\----------|
Eb|------------------------------------------------------------------|

Outro Solo
Eb|---------17-----------------17h20p17------------------------------|
Bb|--17--------20p17----17--------------20p17--20--20b---------------|
Gb|--19b----------------19b------------------------------------------|
Db|------------------------------------------------------------------|
Ab|------------------------------------------------------------------|
Eb|------------------------------------------------------------------|
    < - - - 10x - - >         < - - 13x - - >



Eb|--------------------20b--20b~-------------------------------------|
Bb|--20-17----17-------------------17h20p17-----20b---20b~-----------|
Gb|--------19----19-------------------------19-----------------------|
Db|------------------------------------------------------------------|
Ab|------------------------------------------------------------------|
Eb|------------------------------------------------------------------|

Eb|------------------------------------------------------------------|
Bb|--17h20p17----17-----------------17h20p17----17--20b--------------|
Gb|-----------19----19b---19b~---------------19----------------------|
Db|------------------------------------------------------------------|
Ab|------------------------------------------------------------------|
Eb|------------------------------------------------------------------|

Eb|------------------------20b---20b~--------------------------------|
Bb|--20b~-----17h20p17-----------------------17h2017----17-----------|
Gb|--------------------19----------------------------19--------------|
Db|------------------------------------------------------------------|
Ab|------------------------------------------------------------------|
Eb|------------------------------------------------------------------|


Eb|------------------------------------------------------------------|
Bb|--20b---20b~------17h20p17----17----------------------------------|
Gb|---------------------------19----19b---19b~-----------------------|
Db|------------------------------------------------------------------|
Ab|------------------------------------------------------------------|
Eb|------------------------------------------------------------------|
                                               [fade out]
Comments