Kiss - Deuce Chords & Tabs

 

Deuce Chords & Tabs

Kiss Chords & Tabs

Version: 3 Type: Bass Tab 0 ratings
1 star 2 stars 3 stars 4 stars 5 stars
comments

Deuce Bass Tab

Deuce by Kiss
Standard Tuning

(Intro)
G:-----------
D:-----------
A:----14\----
E:-----------

G:----------------------------
D:----------------------------  X4
A:-------2--222-4-222--4-2----
E:-2-4-4-------------------4-2

G:----------
D:----------
A:-----2---4
E:-4--------

G:-----------------------------------------
D:-----------------------------------------  X2
A:-------2--222-4-222--4-2------------2---4
E:-2-4-4-------------------4-2----4--------

G:-----------------------
D:-----------------------  X2
A:-2----2-2-3-4----------
E:---------------2-3-4--0

G:------------
D:------------
A:-2-----4-4-4
E:------------

G:----------------------------
D:----------------------------  X4
A:-------2--222-4-222--4-2----
E:-2-4-4-------------------4-2

G:----------
D:----------
A:-----2---4
E:-4--------
[ Tab from: http://www.guitartabs.cc/tabs/k/kiss/deuce_btab_ver_3.html ]
G:-----------------------------------------
D:-----------------------------------------  X2
A:-------2--222-4-222--4-2------------2---4
E:-2-4-4-------------------4-2----4--------

G:-----------------------
D:-----------------------  X2
A:-2----2-2-3-4----------
E:---------------2-3-4--0

G:------------
D:------------
A:-2-----4-4-4
E:------------

G:-----------------------------
D:----------------------------- X8
A:-------2--222-4-222--4-2-----
E:-2-4-4-------------------4-2-

G:-----------------------
D:-----------------------  X2
A:-2----2-2-3-4----------
E:---------------2-3-4--0

G:------------
D:------------
A:-2-----4-4-4
E:------------

G:-----------
D:-----------
A:----14\----
E:-----------

G:-----------------------------
D:----------------------------- X6
A:-------2--222-4-222--4-2-----
E:-2-4-4-------------------4-2-

Thanks, please rate when you've learned it.
Tabbed by:
_TheBassist01_
Comments