Kiss - Detroit Rock City Chords & Tabs

 

Detroit Rock City Chords & Tabs

Kiss Chords & Tabs

Version: 3 Type: Tab 0 ratings
1 star 2 stars 3 stars 4 stars 5 stars
comments

Detroit Rock City Tab

Detroit Rock City
Performed By- Kiss
Words and Music By-Paul Stanley and Bob Ezrin
From- Destroyer, 1976
Tabbed By- Cody Angus- co-t@codysmail.com

Tune down 1/2-step

***Warning- I DID NOT List a certain number of times to play certain notes, listen to the song for exact number***

Rhythm Fig. 1
                                                             
Eb|---------------------------------------------------|
Bb|---------------------------------------------------|
Gb|---------------------------------------------------|
Db|---------------------------------------------------|
Ab|--4--2--4--2--4--2--4--2----4--4--4--4--4--4--4----|
Eb|---------------------------------------------------|

                                          
Eb|---------------------------------------------------|
Bb|---------------------------------------------------|
Gb|---------------------------------------------------|
Db|-----7-------------------9-------------------------|
Ab|-----7-------------------9-------------------------|
Eb|--0--5----------------0--7-------------------------|



Rhythm Fig. 2
                                                         
Eb|---------------------------------------------------|
Bb|---------------------------------------------------|
Gb|---------------------------------------------------|
Db|--6--4--6--4--6--4--6--4---6--6--6--6--6--6--6-----|
Ab|---------------------------------------------------|
Eb|---------------------------------------------------|


                                          
Eb|---------------------------------------------------|
Bb|---------------------------------------------------|
Gb|---------------------------------------------------|
Db|-----7-------------------9-------------------------|
Ab|-----7-------------------9-------------------------|
Eb|--0--5----------------0--7-------------------------|



Rhythm Fig. 3
                                                         
Eb|---------------------------------------------------|
Bb|---------------------------------------------------|
Gb|--6--4--6--4--6--4--6--4----6--6--6--6--6--6--6----|
Db|--6--4--6--4--6--4--6--4----6--6--6--6--6--6--6----|
Ab|---------------------------------------------------|
Eb|---------------------------------------------------|
    
                                        
Eb|---------------------------------------------------|
Bb|---------------------------------------------------|
Gb|---------------------------------------------------|
Db|-----7-------------------9-------------------------|
Ab|-----7-------------------9-------------------------|
Eb|--0--5----------------0--7-------------------------|




Rhythm Fig. 4

Eb|---------------------------------------------------|
Bb|---------------------------------------------------|
Gb|---------------------------------------------------|
Db|--6--4--6--4--6--4--6--4---6--6--6--6--6--6--6-----|
Ab|---------------------------------------------------|
Eb|---------------------------------------------------|
    
                                          
Eb|---------------------------------------------------|
Bb|---------------------------------------------------|
Gb|---------------------------------------------------|
Db|-----7-------------------9-------------------------|
Ab|-----7-------------------9-------------------------|
Eb|--0--5----------------0--7-------------------------|



Rhythm Fig. 5
                                            
Eb|---------------------------------------------------|
Bb|---------------------------------------------------|
Gb|----------------------9-------------11-------------|
Db|--11------------------9--------9----11-------------|
Ab|--11------------------7--------9----9--------------|
Eb|--9----------------------------7-------------------|



Rhythm Fig. 6
                                              
Eb|---------------------------------------------------|
Bb|---------------------------------------------------|
Gb|--13------------------16--------16----11-----------|
Db|--11------------------14--------16----11-----------|
Ab|--------------------------------14----9------------|
Eb|---------------------------------------------------|



Rhythm Fig. 7
                                              
Eb|---------------------------------------------------|
Bb|---------------------------------------------------|
Gb|--6--4--6--4--6--4--6--4---------------------------|
Db|--6--4--6--4--6--4--6--4---------------------------|
Ab|---------------------------------------------------|
Eb|---------------------------------------------------|
   


Rhythm Fig. 8
                                             
Eb|---------------------------------------------------|
Bb|---------------------------------------------------|
Gb|---------------------------------------------------|
Db|---------------------------------------------------|
Ab|--4--------4--2-----2-------4----------4-----------|
Eb|-----------------4---------------------------------|


                                              
Eb|---------------------------------------------------|
Bb|---------------------------------------------------|
Gb|---------------------------------------------------|
Db|----------2------------------2---------------------|
Ab|--2--4-----------4--------------4------------------|
Eb|-----------------------2--4------------------------|



Rhythm Fig. 9
                                             
Eb|---------------------------------------------------|
Bb|---------------------------------------------------|
Gb|---------------------------------------------------|
Db|---------------------------------------------------|
Ab|--4--------4--2-----2-------4----------4-----------|
Eb|-----------------4---------------------------------|


                                                    
Eb|---------------------------------------------------|
Bb|---------------------------------------------------|
Gb|------------------------------6--6--6--6p-4--------|
Db|----------2----------------------------------6-----|
Ab|--2--4-----------4---------------------------------|
Eb|---------------------------------------------------|



Rhythm Fig. 10
                                             
Eb|---------------------------------------------------|
Bb|---------------------------------------------------|
Gb|---------------------------------------------------|
Db|---------------------------------------------------|
Ab|--4--------4--2-----2-------4----------4-----------|
Eb|-----------------4---------------------------------|


                                          
Eb|---------------------------------------------------|
Bb|---------------------------------------------------|
Gb|---------------------------------------------------|
Db|----------2----------------------------------------|
Ab|--2--4-----------4---------------------------------|
Eb|---------------------------------------------------|



Rhythm Fig. 11
                                             
Eb|---------------------------------------------------|
Bb|---------------------------------------------------|
Gb|---------------------------------------------------|
Db|---------------------------------------------------|
Ab|--6--------6--4-----4-------6----------6-----------|
Eb|-----------------6---------------------------------|


                                               
Eb|---------------------------------------------------|
Bb|---------------------------------------------------|
Gb|---------------------------------------------------|
Db|----------4------------------4---------------------|
Ab|--4--6-----------6--------------6--------6---------|
Eb|-----------------------4--6------------------------|


                                              
Eb|---------------------------------------------------|
Bb|---------------------------------------------------|
Gb|---------------------------------------------------|
Db|----------4------------------2---------------------|
Ab|--4--6-----------6--------------4------------------|
Eb|-----------------------2--4------------------------|




Rhythm Fig. 12
                                           
Eb|---------------------------------------------------|
Bb|---------------------------------------------------|
Gb|--8--------6---------11--------9-------------------|
Db|--8--------6---------11--------9-------------------|
Ab|--6--------4---------9---------7-------------------|
Eb|---------------------------------------------------|




Rhythm Fig. 13a
                                          
Eb|---------------------------------------------------|
Bb|---------------------------------------------------|
Gb|---------------------------------------------------|
Db|-----7-------------------9-------------------------|
Ab|-----7-------------------9-------------------------|
Eb|--0--5----------------0--7-------------------------|





Rhythm Fig. 13b
                                          
Eb|---------------------------------------------------|
Bb|-------------------------4-------------------------|
Gb|-------------------------4-------------------------|
Db|-----7-------------------4-------------------------|
Ab|-----7---------------/6----------------------------|
Eb|--0--5---------------------------------------------|





Rhythm Fig. 14
                                          
Eb|---------------------------------------------------|
Bb|---------------------------------------------------|
Gb|-------------------------------------------6-------|
Db|-----7-------------------9-----------------6-------|
Ab|-----7-------------------9-----------------4-------|
Eb|--0--5----------------0--7--------------4----------|




Riff 1

 
Eb|---------------------------------------------------|
Bb|-------------------------4----5----4---------------|
Gb|----------------------------------------6----4--6--|
Db|---------------------------------------------------|
Ab|---------------------------------------------------|
Eb|---------------------------------------------------|




Riff 2

 
Eb|---------------------------------------------------|
Bb|---------------------------------------------------|
Gb|--9---8---6---8/9~--------------------8---9---8----|
Db|---------------------------------------------------|
Ab|---------------------------------------------------|
Eb|---------------------------------------------------|


eb|-----------------9---------------------------------|
Bb|-------------9-------------------------------------|
Gb|--6------------------------------------------------|
Db|---------------------------------------------------|
Ab|---------------------------------------------------|
Eb|---------------------------------------------------|





Solo
                                             
Eb|---------------------------------------------------|
Bb|----------------------------------------------4----|
Gb|-----------------------------------------4---------|
Db|------------------------------------6--------------|
Ab|---------------------------------------------------|
Eb|---------------------------------------------------|



                                                     
Eb|---------------------------------------------------|
Bb|---------------------------------------------------|
Gb|--6------------------9\---8----6----9\---8----6\---|
Db|---------------------------------------------------|
Ab|---------------------------------------------------|
Eb|---------------------------------------------------|


   
                                                   
Eb|---------------------------------------------------|
Bb|--------------------4/---5\---4--------------------|
Gb|--4--------------4-----------------4\---2----1/----|
Db|---------------------------------------------------|
Ab|---------------------------------------------------|
Eb|---------------------------------------------------|


   
                                                 
Eb|---------------------------------------------------|
Bb|---------------------------------------------------|
Gb|--2------------------6\---4----2----6\---4----2\---|
Db|---------------------------------------------------|
Ab|---------------------------------------------------|
Eb|---------------------------------------------------|


[ Tab from: http://www.guitartabs.cc/tabs/k/kiss/detroit_rock_city_tab_ver_3.html ]
                                              
Eb|---------------------------------------------------|
Bb|----------------------------------------------4----|
Gb|--1--------------------------------------4---------|
Db|------------------------------------6--------------|
Ab|---------------------------------------------------|
Eb|---------------------------------------------------|
  |               PLAYED TOGETHER                     |   
Eb|---------------------------------------------------|
Bb|----------------------------------------------7----|
Gb|-----------------------------------------8---------|
Db|------------------------------------9--------------|
Ab|---------------------------------------------------|
Eb|---------------------------------------------------|


                                                     
                                                     
Eb|---------------------------------------------------|
Bb|---------------------------------------------------|
Gb|--6------------------9\---8----6----9\---8----6\---|
Db|---------------------------------------------------|
Ab|---------------------------------------------------|
Eb|---------------------------------------------------|
  |                PLAYED TOGETHER                    |
Eb|---------------------------------------------------|
Bb|---------------------9\---7---------9\---7---------|
Gb|--9----------------------------9--------------9\---|
Db|---------------------------------------------------|
Ab|---------------------------------------------------|
Eb|---------------------------------------------------|



                                                      
                                                      
Eb|---------------------------------------------------|
Bb|--------------------4/---5\---4--------------------|
Gb|--4--------------4-----------------4\---2----1/----|
Db|---------------------------------------------------|
Ab|---------------------------------------------------|
Eb|---------------------------------------------------|
  |                PLAYED TOGETHER                    |
Eb|---------------------------------------------------|
Bb|--------------------7/---9\---7--------------------|
Gb|--8--------------8-----------------8\---6----5/----|
Db|---------------------------------------------------|
Ab|---------------------------------------------------|
Eb|---------------------------------------------------|


   
                                                         
                                                            
Eb|---------------------------------------------------|
Bb|---------------------------------------------------|
Gb|--2------------------1--------5--------------------|
Db|---------------------------------------------------|
Ab|---------------------------------------------------|
Eb|---------------------------------------------------|
  |                PLAYED TOGETHER                    |
Eb|---------------------------------------------------|
Bb|---------------------------------------------------|
Gb|--6------------------5--------8--------------------|
Db|---------------------------------------------------|
Ab|---------------------------------------------------|
Eb|---------------------------------------------------|




                                                   
                                                   
Eb|---------------------------------------------------|
Bb|---------------------------------------------------|
Gb|--6------------------6--6--6--6--6--6--6-----------|
Db|----------------------------------------------6----|
Ab|---------------------------------------------------|
Eb|---------------------------------------------------|
  |                PLAYED TOGETHER                    |  
Eb|---------------------------------------------------|
Bb|---------------------------------------------------|
Gb|--6------------------6--6--6--6--6--6--6------8----|
Db|---------------------------------------------------|
Ab|---------------------------------------------------|
Eb|---------------------------------------------------|


    
                                                 
                                                     
Eb|---------------------------------------------------|
Bb|---------------------------------------------------|
Gb|--6------------------9\---8----6----9\---8----6\---|
Db|---------------------------------------------------|
Ab|---------------------------------------------------|
Eb|---------------------------------------------------|
  |                 PLAYED TOGETHER                   |  
Eb|---------------------------------------------------|
Bb|---------------------9\---7---------9\---7---------|
Gb|--9----------------------------9--------------9\---|
Db|---------------------------------------------------|
Ab|---------------------------------------------------|
Eb|---------------------------------------------------|




                                                    
Eb|---------------------------------------------------|
Bb|--------------------4/---5\---4--------------------|
Gb|--4--------------4-----------------6p---4----8\----|
Db|---------------------------------------------------|
Ab|---------------------------------------------------|
Eb|---------------------------------------------------|
  |                PLAYED TOGETHER                    |  
Eb|---------------------------------------------------|
Bb|--------------------7/---9\---7--------------------|
Gb|--8--------------8-----------------9p---8----11\---|
Db|---------------------------------------------------|
Ab|---------------------------------------------------|
Eb|---------------------------------------------------|




                                            
                                            
Eb|---------------------------------------------------|
Bb|---------------------------------------------------|
Gb|--6------------------9----8----6----4--6-----------|
Db|---------------------------------------------------|
Ab|---------------------------------------------------|
Eb|---------------------------------------------------|
  |                PLAYED TOGETHER                    |
Eb|---------------------------------------------------|
Bb|---------------------9----7------------------------|
Gb|--9----------------------------9----8--9-----------|
Db|---------------------------------------------------|
Ab|---------------------------------------------------|
Eb|---------------------------------------------------|



                                                
                                                
Eb|---------------------------------------------------|
Bb|-------------------9----7h-9p-7--------------------|
Gb|----------------6----------------9----8\-6---------|
Db|---------------------------------------------------|
Ab|---------------------------------------------------|
Eb|---------------------------------------------------|
  |                PLAYED TOGETHER                    |
Eb|-------------------9----7h-9p-7--------------------|
Bb|----------------9----------------9----7------------|
Gb|-----------------------------------------9---------|
Db|---------------------------------------------------|
Ab|---------------------------------------------------|
Eb|---------------------------------------------------|




                                                   
Eb|---------------------------------------------------|
Bb|---------------------------------------------------|
Gb|----------------6--9\---8----6----9\---8----6\-----|
Db|---------------------------------------------------|
Ab|---------------------------------------------------|
Eb|---------------------------------------------------|
  |                 PLAYED TOGETHGER                  |
Eb|---------------------------------------------------|
Bb|-------------------9\---7---------9\---7-----------|
Gb|----------------9------------9--------------9\-----|
Db|---------------------------------------------------|
Ab|---------------------------------------------------|
Eb|---------------------------------------------------|




                                                      
                                                      
Eb|---------------------------------------------------|
Bb|--------------------4/---5\---4--------------------|
Gb|--4--------------4-----------------6p---4----8-----|
Db|---------------------------------------------------|
Ab|---------------------------------------------------|
Eb|---------------------------------------------------|
  |                PLAYED  TOGETHER                   |
Eb|---------------------------------------------------|
Bb|--------------------7/---9\---7--------------------|
Gb|--8--------------8-----------------9p---8----4/----|
Db|---------------------------------------------------|
Ab|---------------------------------------------------|
Eb|---------------------------------------------------|


                                        
                                                          
Eb|---------------------------------------------------|
Bb|---------------------------------------------------|
Gb|---------------------------------------------------|
Db|--6------------------------------------------------|
Ab|---------------------------------------------------|
Eb|---------------------------------------------------|
  |              PLAYED TOGETHGER                                       
Eb|---------------------------------------------------|
Bb|---------------------------------------------------|
Gb|--6------------------------------------------------|
Db|---------------------------------------------------|
Ab|---------------------------------------------------|
Eb|---------------------------------------------------|







DETROIT ROCK CITY
Paul Stanley, Bob Ezrin

"... congressional reports.  President Ford says that he's disappointed with Congress's performance.  In Detroit, a Pontiac, Michigan youth was reported dead at the scene of a head-on collision on Grand Avenue this morning.  The youth was reportedly driving on the wrong side of the boulevard when he struck a delivery truck and was catapulted through the windshield of his car.  The driver of the truck is reported to be uninjured.  The identities of both men are being withheld by local police. County legislatives today are expected to rally to the aid of striking longshoremen in hopes of ending the 9 month deadlock ..."

"..roll all night and party every day
I wanna rock and roll all night and party every day"


[Rhy. Fig 1 w/ Rhy. Fig 2]
[Rhy. Fig 3 w/ Rhy. Fig 4]

[Rhy. Fig 5 w/ Rhy. Fig 6] (2x)
I feel uptight on a Saturday night
Nine o' clock, the radio's the only light
I hear my song and it pulls me through
Comes on strong, tells me what I got to do
I got to

[Rhy. Fig 13a]
Get up
Everybody's gonna move their feet
Get down
Everybody's gonna leave their seat

[Rhy. Fig 7 w/ Rhy. Fig 8]
You gotta lose your mind in Detroit Rock City

[Rhy. Fig 13 w/ Rhy. Fig 13b]
Get up
Everybody's gonna move their feet
Get down
Everybody's gonna leave their seat

[Ryy. Fig 5 w/ Rhy. Fig 6] (2x)
Getting late
I just can't wait
Ten o'clock and I know I gotta hit the road
First I drink, then I smoke
Start up the car, and I try to make the midnight show

[Rhy. Fig 13a]
Get up
Everybody's gonna move their feet
Get down
Everybody's gonna leave their seat

[Rhy. Fig 8]
[Rhy. Fig 9]
[Rhy. Fig 8]
[Rhy. Fig 10]
[Rhy. Fig 11 w/ Rhy. Fig 12]
[Rhy. Fig 13a w/ Rhy. Fig 13b]

[Rhy. Fig 5 w/ Rhy. Fig 6] (2x)
Movin' fast, doin' 95
Hit top speed but I'm still movin' much too slow
I feel so good, I'm so alive
I hear my song playin' on the radio
It goes

[Rhy. Fig 14]
Get up
Everybody's gonna move their feet
Get down
Everybody's gonna leave their seat

[Solo]
[Rhy. Fig 13a]
[Rhy. Fig 8]
[Rhy. Fig 13a]


[Rhy. Fig 5 w/ Rhy. Fig 6]
Twelve o'clock, I gotta rock
There's a truck ahead, lights starin' at my eyes
Oh my God, no time to turn
I got to laugh 'cause I know I'm gonna die
Why

[Rhy. Fig 14 w/ Riff 1]
Get up
Everybody's gonna move their feet

[Rhy. Fig 14 w/ Riff 2]
Get up
Everybody's gonna leave their seat






________________________________________________________________
Get your FREE Firstname email address at http://www.Firstname.com

Get a FREE Cell Phone at http://www.freecellphonedeal.com



Comments