Kiss - Cold Gin Chords & Tabs

 

Cold Gin Chords & Tabs

Kiss Chords & Tabs

Version: 1 Type: Bass Tab 0 ratings
1 star 2 stars 3 stars 4 stars 5 stars
comments

Cold Gin Bass Tab

   
Song: COLD GIN
Artist: KISS
Album: KISS
--------------------
                                                                                    
Transcribed by Emil Ortenmark, kfemil@telia.com

Tuned down 1/2-step

Comments: Instant classic. Gene plays some cool counterpoint here using
the A minor pentatonic scale for the most part. I think it's interesting
that he changes octaves right in the middle of that interlude. The riff
that ends the song is so firmly imbedded in anyone who has ever listened
to this song it's ridiculous.


Key:
/    = slide up
\    = slide down
b    = bend (whole step)
b^   = bend (1/2 step)
b^^  = bend (1 1/2 steps)
pb   = pre-bend
r    = release-bend
t    = tap with righthand finger
h    = hammer-on
p    = pull-off
~    = Vibrato
*    = Natural Harmonic
#(#) = Trill
**   = Artificial Harmonic
x    = Dead notes (no pitch)
P.M. = Palm mute (- -> underneath indicates which notes)
(\)  = Dive w\bar
(/)  = Release w\bar
Tp   = Tap w\plectrum


Rhythm Fig. 1
                                             
Gb|------------------------------------------14\---|
Db|---------------------------------------7/-------|
Ab|------------------------------------------------|
Eb|------------------------------------------------|


                                       
Gb|------------------------------------------------|
Db|------------------------------------------------|
Ab|------------------------------------------------|
Eb|--5---------------------------------------------|


                                             
Gb|---------------------5--------------------------|
Db|------------------------7----5------------------|
Ab|--------------------------------7--5--3---------|
Eb|--5---------------------------------------------|



Rhythm Fig. 2
                                                   
Gb|------------------------------------------------|
Db|------------------------------------------------|
Ab|------------------------------------------------|
Eb|--5--5--5--5--5--5--5--5--5--5--5--5--5---------|




Rhythm Fig. 3
                                                 
Gb|------------------------------------------------|
Db|------------------------------------------------|
Ab|--3---------------------------------------------|
Eb|-----5--3--5----5----5--3--0--3--5--5-----------|




Rhythm Fig. 4
                                          
Gb|------------------------------------------------|
Db|------------------------------------------------|
Ab|------------------------------------------------|
Eb|--5--5----------------5--5----------------------|



Gb|------------------------------------------------|
Db|------------------------------------------------|
Ab|--3---------------------------------------------|
Eb|-----5--3--5----5----5--3--0--3--5--5-----------|




Rhythm Fig. 5
                                             
Gb|------------------------------------------------|
Db|---------------------------------5--------------|
Ab|--7--7\---------------7--7\--(7)----5-----------|
Eb|------------------------------------------------|
    < - - - - - - - - 3x - - - - - - - - - >

                                           
Gb|------------------------------------------------|
Db|------------------------------------------------|
Ab|--7--7------------------------------------------|
Eb|------------------------2------3----4-----------|


[ Tab from: http://www.guitartabs.cc/tabs/k/kiss/cold_gin_btab.html ]
Rhythm Fig. 6
                                                   
Gb|------------------------------------------------|
Db|------------------------------------------------|
Ab|--3---------------------------------------------|
Eb|-----5--3--5----5----5--3--0--3--5--3------/15\-|




Rhythm Fig. 7
                                                    
Gb|------------------------------------------------|
Db|------------------------------------------------|
Ab|------------3--3------3--3-2-3-2---3--3-2-3-----|
Eb|--3--3--------------------------------------1---|


                                             
Gb|------------------------------------------------|
Db|------------------------------------------------|
Ab|------------3--3--------3-----------------------|
Eb|--3--3------------------------------------1-1---|


                                                    
Gb|------------------------------------------------|
Db|------------------------------------------------|
Ab|------------3--3------3--3-2-3-2---3--3-2-3-----|
Eb|--3--3--------------------------------------1---|


                                             
Gb|------------------------------------------------|
Db|------------------------------------------------|
Ab|------------3--3--------3-----------------------|
Eb|--3--3------------------------------------3-3---|


                                                    
Gb|---------------------7--7-6-7-6---7--7-6-7------|
Db|-------------------------------------------5----|
Ab|------------5--5--------------------------------|
Eb|--5--5------------------------------------------|


                                             
Gb|------------------------------------------------|
Db|--7--7\-----------------------------------------|
Ab|------------5--5--------5-----------------------|
Eb|------------------------------------------3-3---|


                                                    
Gb|----------------------7--7-6-7-6---7--7-6-7-----|
Db|--------------------------------------------5---|
Ab|------------5--5--------------------------------|
Eb|--5--5------------------------------------------|


                                                  
Gb|------------------------------------------------|
Db|--7--7\-----------------------------------------|
Ab|------------5--5--------5-4-5-4-5-4-5-4---------|
Eb|------------------------------------------------|
                          < - - 2x - - - >


Rhythm Fig. 8
                                           
Gb|------------------------------------------------|
Db|------------------------------------------------|
Ab|--7--7----------------7------5------4-----------|
Eb|------------------------------------------------|
  < - 3x - >

                                       
Gb|------------------------------------------------|
Db|------------------------------------------------|
Ab|------------------------------------------------|
Eb|--5---------------------------------------------|



Rhythm Fig. 9
                                                    
Gb|--5---------------------------------------------|
Db|-----7--5--7----5-------------------------------|
Ab|-------------------7--5----3-----------3--5--7--|
Eb|------------------------------5--3--5-----------|


                                                 
Gb|--5---------------------------------------------|
Db|-----7--5--7----5-------------------------------|
Ab|-------------------7--5----3--------------------|
Eb|------------------------------5--3--5-----------|


                                        
Gb|------------------------------------------------|
Db|------------------------------------------------|
Ab|------------------------------------------------|
Eb|--5\--------------------------------------------|

Comments