Kiss - Black Diamond Chords & Tabs

 

Black Diamond Chords & Tabs

Kiss Chords & Tabs

Version: 3 Type: Tab 0 ratings
1 star 2 stars 3 stars 4 stars 5 stars
comments

Black Diamond Tab

Intro  (use a 12 String Acoustic)

Eb|----------------------------------------------------|
Bb|--------1-3-1-----------1-3-1-------------1-3-1-----|
Gb|------2-------2-------2-------2---------2-------2---|
Db|----2-----------2---2-----------2---2-3-----------3-|
Ab|--0---------------0---------------0-----------------|
Eb|----------------------------------------------------|


Eb|----------------------------------------------------|
Bb|------1----1\3----3-----------1-3-1-----------1-3-1-|
Gb|----2---2--2\4--4---4-------2-------2-------2-------|
Db|--3--------3\5------------2-----------2---2---------|
Ab|------------------------0---------------0-----------|
Eb|----------------------------------------------------|


Eb|----------------------------------------------------|
Bb|-------------1-3-1-------1--------------------------|
Gb|-2---------2-------2-----2--------------------------|
Db|---2---2-3-----------3---2--------------------------|
Ab|-----0-------------------0--------------------------|
Eb|----------------------------------------------------|


Rhythm Fig. 1

Eb|------------------------------------------1---------|
Bb|------------------------------------------1---------|
Gb|--2--2----------------2-------------------2---------|
Db|--2----2--------------2-------------------3---------|
Ab|--0------0------------0----3--2--0--------3---------|
Eb|---------------0--3------------------3----1---------|

Eb|----------------------------------------------------|
Bb|--12h^13p^12h^13p^12h^13p^12------------------------|
Gb|--12--12--12--12--12--12--12------------------------|
Db|--12h^14p^12h^14p^12h^14p^12------------------------|
Ab|----------------------------------------------------|
Eb|----------------------------------------------------|


Rhythm Fig. 2

Eb|------------------------------------------1---------|
Bb|------------------------------------------1---------|
Gb|--2---------------------------------------2---------|
Db|--2---------------------------------------3---------|
Ab|--0------------------------3--2--0--------3---------|
Eb|-------------------------------------3----1---------|

Eb|----------------------------------------------------|
Bb|--12h^13p^12h^13p^12h^13p^12------------------------|
Gb|--12--12--12--12--12--12--12------------------------|
Db|--12h^14p^12h^14p^12h^14p^12------------------------|
Ab|----------------------------------------------------|
Eb|----------------------------------------------------|

Eb|------------------------------------------1---------|
Bb|------------------------------------------1---------|
Gb|--2---------------------------------------2---------|
Db|--2---------------------------------------3---------|
Ab|--0------------------------3--2--0--------3---------|
Eb|-------------------------------------3----1---------|


Eb|----------------------------------------------------|
Bb|----------------------------------------------------|
Gb|--------5---2---------------------------------------|
Db|---5h^7-5---2---------------------------------------|
Ab|---5h^7-----0---------------------------------------|
Eb|----------------------------------------------------|


Rhythm Fig. 2(a)

Eb|------------------------------------------1---------|
Bb|------------------------------------------1---------|
Gb|--2---------------------------------------2---------|
Db|--2---------------------------------------3---------|
Ab|--0---------------0--------3--2--0--------3---------|
Eb|------------0-3----------------------3----1---------|

Eb|----------------------------------------------------|
Bb|--12h^13p^12h^13p^12h^13p^12------------------------|
Gb|--12--12--12--12--12--12--12------------------------|
Db|--12h^14p^12h^14p^12h^14p^12------------------------|
Ab|----------------------------------------------------|
Eb|----------------------------------------------------|

Eb|------------------------------------------1---------|
Bb|------------------------------------------1---------|
Gb|--2---------------------------------------2---------|
Db|--2---------------------------------------3---------|
Ab|--0---------------0--------3--2--0--------3---------|
Eb|------------0-3----------------------3----1---------|

Eb|----------------------------------------------------|
Bb|----------------------------------------------------|
Gb|--------5---2---------------------------------------|
Db|---5h^7-5---2---------------------------------------|
Ab|---5h^7-----0---------------------------------------|
Eb|----------------------------------------------------|

Rhythm Fig. 2(b)

Eb|------------------------------------------1---------|
Bb|------------------------------------------1---------|
Gb|------------------------------------------2---------|
Db|------------------------------------------3---------|
Ab|---------------------------3--2--0--------3---------|
Eb|-------------------------------------3----1---------|

Eb|----------------------------------------------------|
Bb|--12h^13p^12h^13p^12h^13p^12------------------------|
Gb|--12--12--12--12--12--12--12------------------------|
Db|--12h^14p^12h^14p^12h^14p^12------------------------|
Ab|----------------------------------------------------|
Eb|----------------------------------------------------|

Eb|------------------------------------------1---------|
Bb|------------------------------------------1---------|
Gb|--2--2------------------------------------2---------|
Db|--2----2----------------------------------3---------|
Ab|--0------0---------0-------3--2--0--------3---------|
Eb|-------------0--3--------------------3----1---------|


Eb|----------------------------------------------------|
Bb|----------------------------------------------------|
Gb|--------5---2---------------------------------------|
Db|---5h^7-5---2---------------------------------------|
Ab|---5h^7-----0---------------------------------------|
Eb|----------------------------------------------------|


Rhythm Fig. 3

Eb|----------------------------------------------------|
Bb|----------------------------------------------------|
Gb|---5--5-5-5-5---7---7-7-7-7---2-2----5---7---5------|
Db|---3--3-3-3-3---5---5-5-5-5---2-2----5---7---5------|
Ab|------------------------------0-0----3---5---3------|
Eb|----------------------------------------------------|

Eb|-----------------1----------------------------------|
Bb|-----------------1----------------------------------|
Gb|-----------------2----------------------------------|
Db|---5-5-5---7--5--3----5-5-5-5-----------------------|
Ab|---5-5-5---7--5--3----5-5-5-5-----------------------|
Eb|---3-3-3---5--3--1----3-3-3-3-----------------------|


Rhythm Fig. 3(a)

Eb|----------------------------------------------------|
Bb|----------------------------------------------------|
Gb|------------------------------2-2----5---7---5------|
Db|---3--3-3-3-3---5---5-5-5-5---2-2----5---7---5------|
Ab|---3--3-3-3-3---5---5-5-5-5---0-0----3---5---3------|
Eb|---1--1-1-1-1---3---3-3-3-3-------------------------|

Eb|-----------------1----------------------------------|
Bb|-----------------1----------------------------------|
Gb|-----------------2----------------------------------|
Db|---5-5-5---7--5--3----5-5-5-5-----------------------|
Ab|---5-5-5---7--5--3----5-5-5-5-----------------------|
Eb|---3-3-3---5--3--1----3-3-3-3-----------------------|



Rhythm Fig. 3(b)

Eb|----------------------------------------------------|
Bb|----------------------------------------------------|
Gb|---5--5-5-5-5---7---7-7-7-7---2-2----5---7---5------|
Db|---3--3-3-3-3---5---5-5-5-5---2-2----5---7---5------|
Ab|------------------------------0-0----3---5---3------|
Eb|----------------------------------------------------|
[ Tab from: http://www.guitartabs.cc/tabs/k/kiss/black_diamond_tab_ver_3.html ]
Eb|-----------------1----------------------------------|
Bb|-----------------1----------------------------------|
Gb|-----------------2-------2-2---5--7--5--------5---2-|
Db|---5-5-5---7--5--3----5--2-2---5--7--5---5h^7-5-7-2-|
Ab|---5-5-5---7--5--3----5--0-0---3--5--3---5h^7---7-0-|
Eb|---3-3-3---5--3--1----3-----------------------------|


Rhythm Fig. 3(c)

Eb|----------------------------------------------------|
Bb|----------------------------------------------------|
Gb|------------------------------2-2----5---7---5------|
Db|---3--3-3-3-3---5---5-5-5-5---2-2----5---7---5------|
Ab|---3--3-3-3-3---5---5-5-5-5---0-0----3---5---3------|
Eb|---1--1-1-1-1---3---3-3-3-3-------------------------|

Eb|-----------------1----------------------------------|
Bb|-----------------1----------------------------------|
Gb|-----------------2-------2-2---5--7--5--------5---2-|
Db|---5-5-5---7--5--3----5--2-2---5--7--5---5h^7-5-7-2-|
Ab|---5-5-5---7--5--3----5--0-0---3--5--3---5h^7---7-0-|
Eb|---3-3-3---5--3--1----3-----------------------------|


Rhythm Fig. 4


Eb|----------------------------------------------------|
Bb|--------1-3-1-----------1-3-1-------------1-3-1-----|
Gb|------2-------2-------2-------2---------2-------2---|
Db|----2-----------2---2-----------2---2-3-----------3-|
Ab|--0---------------0---------------0-----------------|
Eb|----------------------------------------------------|
        

Rhythm Fig. 5

Eb|----------------------------------------------------|
Bb|----------------------------------------------------|
Gb|----2-----------------------------------------------|
Db|----2-----------------------------------------------|
Ab|----0-----------------------------------------------|
Eb|----------------------------------------------------|

Riff. 1

Eb|----------------------------------------------------|
Bb|----------------------------------------------------|
Gb|----7h^8p^7p^5--------------------------------------|
Db|----------------------------------------------------|
Ab|----------------------------------------------------|
Eb|----------------------------------------------------|


Solo. 1

Eb|-5--5-5--5-5--5-5---8p^5----------------------------|
Bb|-8b---8b---8b---8b-------8-8p^5---------------------|
Gb|--------------------------------7---5~--------------|
Db|----------------------------------------------------|
Ab|----------------------------------------------------|
Eb|----------------------------------------------------|

Eb|-------------------------------5--5--5--5--5--5--5--|
Bb|--12h^13p^12h^13p^12h^13p^12---8b-8b-8b-8b-8b-8b-8b-|
Gb|--12--12--12--12--12--12--12------------------------|
Db|--12h^14p^12h^14p^12h^14p^12------------------------|
Ab|----------------------------------------------------|
Eb|----------------------------------------------------|

Eb|-5--5--5--------------------------------------------|
Bb|-8b-8b-8b-8b-r8-------------------------------------|
Gb|-----------------7--5~------------------------------|
Db|----------------------------------------------------|
Ab|----------------------------------------------------|
Eb|----------------------------------------------------|

Solo. 2

Eb|----------------------------------------------------|
Bb|-13-13-13-13-13-13-13----13--12-10h^12p^10----------|
Gb|-15b---15b---15b---15b---------------------12--10~--|
Db|----------------------------------------------------|
Ab|----------------------------------------------------|
Eb|----------------------------------------------------|

Eb|----------------------------------------------------|
Bb|--12h^13p^12h^13p^12h^13p^12--13--13--13--13--13----|
Gb|--12--12--12--12--12--12--12--15b-15b-15b-15b-15b---|
Db|--12h^14p^12h^14p^12h^14p^12------------------------|
Ab|----------------------------------------------------|
Eb|----------------------------------------------------|

Eb|----------------------------------------------------|
Bb|-13--13--13--13--13--13-----------------------------|
Gb|-15b-15b-15b-15b-15b-15b--r15--12--10~--------------|
Db|----------------------------------------------------|
Ab|----------------------------------------------------|
Eb|----------------------------------------------------|


Solo. 3

Eb|----------------------------------------------------|
Bb|--8------8------8------8-----8--------8------8------|
Gb|----7-5----7-5----7-5----7-5---7-5------7-5----7-5--|
Db|----------------------------------------------------|
Ab|----------------------------------------------------|
Eb|----------------------------------------------------|


Eb|----------------------------------------------------|
Bb|--8-----8-----8-----8------8------------------------|
Gb|----7-5---7-5---7-5---7-5----7-5---7--5h^7p^7---5---|
Db|----------------------------------------------7-----|
Ab|----------------------------------------------------|
Eb|----------------------------------------------------|

Eb|----------------------------------------------------|
Bb|----------------------------------------------------|
Gb|--7b~~---7b-r7p^5-----7b-r7p^5----7b~--5h^7p^5------|
Db|-------------------7-----------7----------------7---|
Ab|----------------------------------------------------|
Eb|----------------------------------------------------|

Eb|----------------------------------------------------|
Bb|----------------------------------------------------|
Gb|----5~---------------------------2------------------|
Db|----------7--5-------------------2------------------|
Ab|-----------------7--6--5---3b^---0------------------|
Eb|----------------------------------------------------|

Solo. 4

Eb|----------------------------------------------------|
Bb|--10------10-------8b--8--5-------------------------|
Gb|--12b~~---12b~~---------------7-5-----5--7---7b~----|
Db|-----------------------------------7----------------|
Ab|----------------------------------------------------|
Eb|----------------------------------------------------|

Eb|----------------------------------------------------|
Bb|-----------------------------8-----10----12---13----|
Gb|--r7p^5---7p^5---------------10b---12b---14b--15b---|
Db|----------------7-7-7-7~~~--------------------------|
Ab|----------------------------------------------------|
Eb|----------------------------------------------------|

Eb|------------------------------------------17--------|
Bb|-12--13---12--13---12--13---15----17---17----17b----|
Gb|-14b-15b--14b-15b--14b-15b--17b---19b--------19-----|
Db|----------------------------------------------------|
Ab|----------------------------------------------------|
Eb|----------------------------------------------------|

Eb|-----17---------------------------------------------|
Bb|--17------20b--20b~--20b-20b~---20b-r20p^19p^17-----|
Gb|------------------------------------------------19--|
Db|----------------------------------------------------|
Ab|----------------------------------------------------|
Eb|----------------------------------------------------|

Eb|-------------20b--20b--20b--20b--20b--20b--20b--20b-|
Bb|--29p^17--------------------------------------------|
Gb|---------17-----------------------------------------|
Db|----------------------------------------------------|
Ab|----------------------------------------------------|
Eb|----------------------------------------------------|

Eb|-20b--20b-r20p&17--------------------17---17-17---17|
Bb|------------------20--17h^20p^17-----20b-----20b----|
Gb|----------------------------------19----------------|
Db|----------------------------------------------------|
Ab|----------------------------------------------------|
Eb|----------------------------------------------------|

Eb|-17--17---------------------------------------------|
Bb|-20b------20b-r20p^17-------------------------------|
Gb|------------------------19b-r19--17-----------------|
Db|----------------------------------------------------|
Ab|----------------------------------------------------|
Eb|----------------------------------------------------|
Comments