Kiss - Black Diamond Chords & Tabs

 

Black Diamond Chords & Tabs

Kiss Chords & Tabs

Version: 2 Type: Tab 2 ratings
1 star 2 stars 3 stars 4 stars 5 stars
comments

Black Diamond Tab

Artist: Kiss
Song: Black Diamond(Album Kiss Alive)
Tabbed By: John Leadman




  Acoustic intro                                               repeat
e:-------3---0------------------------------0---------------------------|
B:---------------3---1---0------0---------1---1---3-1----0----------5---|
G:----------------------------2---0-----2-------2-----2-------2/4-4---4-|
D:----2-----------------------------2-3-----------------3--3--3/5-------|
A:--0------0---0---0---0---0--------------------------------------------|
E:----------------------------------------------------------------------|





e:-------0~---------0~------0~----------0~--------0~-------------------------|
B:-------0/1--------0/1-----0/1---------0/1-------0/1--------------5---------|
G:-----------2----------2-------2-----2-----2---2------2----2/4--4---4-------|
D:----2--------2----------2-------2-3---------3----------3--3/5------------2-|
A:--0------------0-------------------------------------------------------0---|
E:---------------------------------------------------------------------------|




                                                                  rhythm 1
e:0~--------0~-------0~----------3---0---------------------------------------|
B:0/1-------0/1------0/1-----------------3---1---0---------------------------|
G:----2---------2--------2-----2----------------------2/4--4~-----2-----2----|
D:------2---------2--------2-3-----3---3---3---3---3--3/5--5~-----2-------2--|
A:--------0-------------------------------------------------------0---------0|
E:---------------------------------------------------------------------------|





e:---------------------------------------------------------------------------|
B:-------------------------12/13/12/13/12/13/12------------------------------|
G:-------------------------12/12/12/12/12/12/12------2----2------------------|
D:------2------------3~----12/14/12/14/12/14/12------2------2--------2-------|
A:------0---3-2-0----3~------------------------------0--------0------0---3-2-|
E:--0-3-----------3--1~------------------------------------------0-3---------|




                                         "Out on the streets....."
e:---------------------------------------------------------------------------|
B:-----------12/13/12/13/12/13/12--------------------------------------------|
G:-----------12/12/12/12/12/12/12--------2~----------------------------------|
D:-----3~----12/14/12/14/12/14/12--------2~-------------------------------3~-|
A:0----3~--------------------------------0~-----------------------3-2-0---3~-|
E:--3--1~---------------------------------------------------------------3-1~-|





                                                                         "Ooh
e:---------------------------------------------------------------------------|
B:------12/13/12/13/12/13/12----------------------------------5--------------|
G:------12/12/12/12/12/12/12-----2~-----------------------5-7-5---2------5--5|
D:------12/14/12/14/12/14/12-----2~--------------3~-------5-7-----2------3--3|
A:-------------------------------0~------3-2-0---3~---------------0----------|
E:---------------------------------------------3-1~--------------------------|




   ooh,    Black diamond...."
e:---------------------------------------------------------------------------|
B:---------------------------------------------------------------------------|
G:--5-5-5----7--7--7-7-7---------2--2----5--7--5-------------2---------------|
D:--3-3-3----5--5--5-5-5---------2--2----5--7--5----5-5-5----2--5--3~--------|
A:-------------------------------0--0----3--5--3----5-5-5----0--5--3~---5--5-|
E:--------------------------------------------------3-3-3-------3--1~---3--3-|


             
             
             
e:----------|
B:----------|
G:-7/8/7/5--|
D:----------|
A:-5--5-----|
E:-3--3-----|



[ Tab from: http://www.guitartabs.cc/tabs/k/kiss/black_diamond_tab_ver_2.html ]
  for one guitar
e:-----------10------10------10------10---10/12/10---------------------------|
B:----10-----10--10--10--10--10--10--10------------13--13/12/10------------12|
G:----12b(14)----12b-----12b-----12b----------------------------12--10~----12|
D:-------------------------------------------------------------------------12|
A:-7-------------------------------------------------------------------------|
E:-5-------------------------------------------------------------------------|





e:---------------------------------------------------------------------------|
B:/13/12/13/12/13/12---10------10--10--10--10--10--10--10--10--10--10--------|
G:/12/12/12/12/12/12---12b(14)-12b-12b-12b-12b-12b-12b-12b-12b-12b-12b-12-10~|
D:/14/12/14/12/14/12---------------------------------------------------------|
A:---------------------------------------------------------------------------|
E:---------------------------------------------------------------------------|






e:---------------------------------------------------------------------------|
B:---12/13/12/13/12/13/12---------8--------8--------8--------8--------8-----8|
G:---12/12/12/12/12/12/12------------7--5-----7--5-----7--5-----7--5----7-5--|
D:---12/14/12/14/12/14/12----------------------------------------------------|
A:---------------------------------------------------------------------------|
E:---------------------------------------------------------------------------|





e:---------------------------------------------------------------------------|
B:-----8-----8-----8-----8-----8-----8---------------------------------------|
G:-7-5---7-5---7-5---7-5---7-5---7-5---7-5--7-5/7/5---5----7b(9)~------7b-7-5|
D:--------------------------------------------------7------------------------|
A:---------------------------------------------------------------------------|
E:---------------------------------------------------------------------------|


                                                       


e:----------------------------------------------------|
B:----------------------------------------------------|
G:----7b-7-5----7b~---5/7/5---5~-------------------2--|
D:-7---------7--------------7-------7--5-----------2--|
A:----------------------------------------7-6-5-3--0--|
E:----------------------------------------------------|




   solo 2
e:---------------------------------------------------------------------------|
B:-10-----------10---------8b--8--5--------------------------------------8---|
G:-12b(14)~-----12b(14)~------------7-5----5--7--7b~7--5--7-5------------10b-|
D:---------------------------------------7--------------------77777~---------|
A:---------------------------------------------------------------------------|
E:---------------------------------------------------------------------------|





e:---------------------------------------------------------17-------17-------|
B:-10---12---13---12---13---12---13---12---13---15---17--17---17--17---20b-20|
G:-12b--14b--15b--14b--15b--14b--15b--14b--15b--17b--19b------19b------------|
D:---------------------------------------------------------------------------|
A:---------------------------------------------------------------------------|
E:---------------------------------------------------------------------------|






e:-----------------------------------------20b--20b--20b--20b-20b-20b-20b-20b|
B:b~--20b-20b~--20b/20--19-17----19-17---------------------------------------|
G:----------------------------19-------17------------------------------------|
D:---------------------------------------------------------------------------|
A:---------------------------------------------------------------------------|
E:---------------------------------------------------------------------------|





e:-20b-20b/20-17--------------------17--17--17--17--17--17-------------------|
B:----------------20--17/20/17------20b-----20b-----20b-----20b/20-17--------|
G:-----------------------------19--------------------------------------19b/19|
D:---------------------------------------------------------------------------|
A:---------------------------------------------------------------------------|
E:---------------------------------------------------------------------------|


                                                                


e:--------------------------------------------------------------|
B:--------------------------------------------------------------|
G:-17---------------------7--7b/7------------------7--7b/7-----2|
D:--------------------7-9----------------------7-9---------7~--2|
A:-------------------------------------------------------------0|
E:--------0---0-0-0-0-------------0---0-0-0-0-------------------|




Comments