Kiros - Lost For Words Chords & Tabs

 

Lost For Words Chords & Tabs

Kiros Chords & Tabs

Version: 1 Type: Tab 0 ratings
1 star 2 stars 3 stars 4 stars 5 stars
comments

Lost For Words Tab

Lost For Words - Kiros
Standard Tuning
Tabbed by YoYoJoe

Intro:
(bass)
|---------------------------------|
|---------0--0--0-----------------|
|-----------------0--0--0---------|
|-2--2--2-----------------0--0--0-|

(Guitar)
|---------------------------------|
|---------------------------------|
|---------------------------------|
|------------------------444444444|
|------------------------444444444|
|------------------------222222222|
PM                       _________


|------------------------------------------------------------------|
|------------------------------------------------------------------|
|------------------------------------------------------------------|
|-4444666677776666444477776666777744446666777766669999777766667777-|
|------------------------------------------------------------------|
|------------------------------------------------------------------|
PM________________________________________________________________

(Overtop)
|------------------------------------------------------------------|
|-7777999910101010999977771010101099991010101077779999101010109999-|
|------------------------------------------------------------------|
|------------------------------------------------------------------|
|------------------------------------------------------------------|
|------------------------------------------------------------------|

|------------------------------|
|-1212121210101010999910101010-|
|------------------------------|
|------------------------------|
|------------------------------|
|------------------------------|

|-----------------------------------------------------------------|
|-----------------------------------------------------------------|
|-----------------7--x--7-7-7-7-7---------------------------------|
|-4--x--4-4-4-4-4-7--x--7-7-7-7-7-7--x--7-7-7-7-7-2-2-2-2-2-2-2-2-|
|-4--x--4-4-4-4-4-5--x--5-5-5-5-5-7--x--7-7-7-7-7-2-2-2-2-2-2-2-2-|
|-2--x--2-2-2-2-2-----------------5--x--5-5-5-5-5-0-0-0-0-0-0-0-0-|


|-----------------------------------------------------------------|
|-----------------------------------------------------------------|
|-----------------7--x--7-7-7-7-7---------------------------------|
|-4--x--4-4-4-4-4-7--x--7-7-7-7-7-7--x--7-7-7-7-7-2---------------|
|-4--x--4-4-4-4-4-5--x--5-5-5-5-5-7--x--7-7-7-7-7-2---------------|
|-2--x--2-2-2-2-2-----------------5--x--5-5-5-5-5-0---------------|
                                                     Hey Hey Hey!

|-------------------------------------|
|-------------------------------------|
|---------7-777-777-------------------|
|-4-4-444-7-777-777-7-7-777-2-222-222-|
|-4-4-444-5-555-555-7-7-777-2-222-222-|
|-2-2-222-----------5-5-555-0-000-000-|

|-------------------------------------------|
|-------------------------------------------|
|---------7-777-777-------------------------|
|-4-4-444-7-777-777-7-7-777-2---------------|
|-4-4-444-5-555-555-7-7-777-2-------2p0-----|
|-2-2-222-----------5-5-555-0-0h2p0-----2p0-|

Verse:
"Your never there, anyway.  Did you think we were ok?
I don't know, whats left to say.  Cept I wish that you would stay."

|---------------------------------------------------------------|
|---------------------------------------------------------------|
|---------------------------------------------------------------|
|-----------------7-7-7---7-7-7---------------------------------| X2
|-4-4-4---4-4-4---5-5-5---5-5-5---7-7-7---7-7-7---2-2-2---2-2-2-|
|-2-2-2---2-2-2-------------------5-5-5---5-5-5---0-0-0---0-0-0-|
PM_____________________________________________________________

"I don't know, whats left to do.  I'm so sick of chasing you.
I don't know, anymore.  Please don't walk through that door."

|-------------------------------------------------------------------------|
|-------------------------------------------------------------------------|
|-------------------------------------------------------------------------|
|---------7-777-777---------------------------7-777-777-------------------|
|-4-4-444-5-555-555-7-7-777-2-222-222-4-4-444-5-555-555-7-7-777-2---------|
|-2-2-222-----------5-5-555-0-000-000-2-2-222-----------5-5-555-0---------|

Interlude:
|-------------------------------------------------------|
|-------------------------------------------------------|
|---------------7x--7-7-7-7-7---------------------------|
|-4x--4-4-4-4-4-7x--7-7-7-7-7--7x--7-7-7-7-7------------| X2
|-4x--4-4-4-4-4-5x--5-5-5-5-5--7x--7-7-7-7-7----2-------|
|-2x--2-2-2-2-2----------------5x--5-5-5-5-5-0-----2--0-|

(During Bass Solo)
|-------------------------------------------------------------------------|
|-------------------------------------------------------------------------|
|-------------------------------------------------------------------------|
|---------7-777-777---------------------------7-777-777-------------------|
|-4-4-444-5-555-555-7-7-777-2-222-222-4-4-444-5-555-555-7-7-777-2---------|
|-2-2-222-----------5-5-555-0-000-000-2-2-222-----------5-5-555-0---------|

Then:
|----------------------------------------------------------------|
|----------------------------------------------------------------|
|---------7--7--7-------------------------7--7--7----------------|
|-4--4--4-7--7--7-7--7--7-2--2--2-4--4--4-7--7--7-7--7--7-2-X\\\-|
|-4--4--4-5--5--5-7--7--7-2--2--2-4--4--4-5--5--5-7--7--7-2-X\\\-|
|-2--2--2---------5--5--5-0--0--0-2--2--2---------5--5--5-0------|

|-------------------------------------|
|-------------------------------------|
|---------7-777-777-------------------|
|-4-4-444-7-777-777-7-7-777-2-222-222-|
|-4-4-444-5-555-555-7-7-777-2-222-222-|
|-2-2-222-----------5-5-555-0-000-000-|

|-------------------------------------------|
|-------------------------------------------|
|---------7-777-777-------------------------|
|-4-4-444-7-777-777-7-7-777-2---------------|
|-4-4-444-5-555-555-7-7-777-2-------2p0-----|
|-2-2-222-----------5-5-555-0-0h2p0-----2p0-|

Verse 2:
"Your never there, anyway.  Did you think we were ok?
I don't know, whats left to say.  Cept I wish that you would stay."
[ Tab from: http://www.guitartabs.cc/tabs/k/kiros/lost_for_words_tab.html ]
|-------------------------------------------------------------------------|
|-------------------------------------------------------------------------|
|-------------------------------------------------------------------------|
|---------7-777-777---------------------------7-777-777-------------------|
|-4-4-444-5-555-555-7-7-777-2-222-222-4-4-444-5-555-555-7-7-777-2---------|
|-2-2-222-----------5-5-555-0-000-000-2-2-222-----------5-5-555-0---------|

"I don't know, whats left to do.  I'm so sick of chasing you."

|-----------------------------------------------------------------|
|-----------------------------------------------------------------|
|-----------------7-7-7-7-7-7-7-7---------------------------------|
|-4-4-4-4-4-4-4-4-7-7-7-7-7-7-7-7-7-7-7-7-7-7-7-7-2-2-2-2-2-2-2-2-|
|-4-4-4-4-4-4-4-4-5-5-5-5-5-5-5-5-7-7-7-7-7-7-7-7-2-2-2-2-2-2-2-2-|
|-2-2-2-2-2-2-2-2-----------------5-5-5-5-5-5-5-5-0-0-0-0-0-0-0-0-|

"I don't know, anymore.  Please don't walk through that door."

|-----------------------------------------------------------------|
|-----------------------------------------------------------------|
|-----------------7-7-7-7-7-7-7-7---------------------------------|
|-4-4-4-4-4-4-4-4-7-7-7-7-7-7-7-7-7-7-7-7-7-7-7-7-2---------------|
|-4-4-4-4-4-4-4-4-5-5-5-5-5-5-5-5-7-7-7-7-7-7-7-7-2---------------|
|-2-2-2-2-2-2-2-2-----------------5-5-5-5-5-5-5-5-0---------------|

Lead up to Solo:
|---------------|
|-------------2-|
|---------------|
|-4-------------|
|-4-------------|
|-2-------------|

Solo/Outro:
|-10--9-10-9-10-12-10-9--10-9\7-9-10--10-10-10--10-9-7--10--7h10-|
|----------------------------------------------------------------|
|----------------------------------------------------------------|
|----------------------------------------------------------------|
|----------------------------------------------------------------|
|----------------------------------------------------------------|

|----7-9--9-9-10p9p7-10-7-12-10-9-10-9\7-9-10-10p9p7-|
|-10-------------------------------------------------|
|----------------------------------------------------|
|----------------------------------------------------|
|----------------------------------------------------|
|----------------------------------------------------|

(Tapping Part)
|-----------------------------------------------------------------------|
|-12p9p7-14p9p7-15p9p7-14p9p7-17p9p7-14p9p7-15p9p7-14p9p7-17p9p7-14p9p7-|
|-----------------------------------------------------------------------|
|-----------------------------------------------------------------------|
|-----------------------------------------------------------------------|
|-----------------------------------------------------------------------|

|-----------------------------------------------------------------------|
|-15p9p7-14p9p7-15p9p7-17p9p7-15p9p7-17p9p7-17p9p7-15p9p7-19p9p7-15p9p7-|
|-----------------------------------------------------------------------|
|-----------------------------------------------------------------------|
|-----------------------------------------------------------------------|
|-----------------------------------------------------------------------|

|---------------------------------------------------------|
|-17p9p7-15p9p7-14p9p7-15p9p7-14p9p7-12p9p7-14p9p7-12p9p7-|
|---------------------------------------------------------|
|---------------------------------------------------------|
|---------------------------------------------------------|
|---------------------------------------------------------|

|-----------------------------------------------------------------------|
|-12p7-12p7-14p7-14p7-12p10p9p7-12p10p9p7-12p10p9p7-12p10p9p7-14p10p9p7-|
|-----------------------------------------------------------------------|
|-----------------------------------------------------------------------|
|-----------------------------------------------------------------------|
|-----------------------------------------------------------------------|

|-----------------------------------------------------------------------|
|-14p10p9p7-14p10p9p7-14p10p9p7-15p10p9p7-15p10p9p7-15p10p9p7-15p10p9p7-|
|-----------------------------------------------------------------------|
|-----------------------------------------------------------------------|
|-----------------------------------------------------------------------|
|-----------------------------------------------------------------------|

|-----------------------------------------------------------------------|
|-17p10p9p7-17p10p9p7-17p10p9p7-17p10p9p7-19p10p9p7-19p10p9p7-19p10p9p7-|
|-----------------------------------------------------------------------|
|-----------------------------------------------------------------------|
|-----------------------------------------------------------------------|
|-----------------------------------------------------------------------|

|-----------------------------------------------------------------------|
|-19p10p9p7-17p10p9p7-17p10p9p7-17p10p9p7-17p10p9p7-15p10p9p7-15p10p9p7-|
|-----------------------------------------------------------------------|
|-----------------------------------------------------------------------|
|-----------------------------------------------------------------------|
|-----------------------------------------------------------------------|

|--------------------------------------------------------|
|-15p10p9p7-15p10p9p7-14p7-15p10p9p7-14p10p9p7-12p10p9p7-|
|--------------------------------------------------------|
|--------------------------------------------------------|
|--------------------------------------------------------|
|--------------------------------------------------------|

(Back to picking)                   (Tap)
|-6----------7----------9---------------------------------------|
|---7-7--7-7---7-7--7-7---7-7--7-7--15p9p7-14p9p7-12p9p7-14p9p7-|
|---------------------------------------------------------------|
|---------------------------------------------------------------|
|---------------------------------------------------------------|
|---------------------------------------------------------------|

|-6----------7----------9--------------------------------------|
|---7-7--7-7---7-7--7-7---7-7--7-7-----------------------------|
|--------------------------------------------------------------|
|---------------------------------------------------4--------4-|
|-----------------------------------2p0-----2p0-----4--------4-|
|---------------------------------------2p0-----2p0-2--------2-|
Comments