Kira And The Kindred Spirits - Losing You Chords & Tabs

 

Losing You Chords & Tabs

Kira And The Kindred Spirits Chords & Tabs

Version: 2 Type: Tab 0 ratings
1 star 2 stars 3 stars 4 stars 5 stars
comments

Losing You Tab

   
    _______________________________
   / Kira And The Kindred Spirits / Though tabs isn't quite in the band's
  / Losing You                   /  jam-spirit, then here are the tabs for
 / This Is Not An Exit          /   this amazing song. It is - just as titled -
/______________________________/    about a girl who feels losing her boyfriend.


Chords played by the 2nd guitar:
  Bm    x 2 4 4 3 2
  D     x x 0 2 3 2
  G     3 2 0 0 0 3 (verse)
  and   3 5 5 4 3 3 (chorus)
  E     0 2 2 1 0 0
  F#    2 4 4 3 2 2
  C     x 3 2 0 1 0
  F#m   2 4 4 2 2 2


1st Guitar (E A D G B E) - 'Rune Kjeldsen - Lead Clean Electric
2nd Guitar (E A D G B E) - 'Kira Skov - Rhythm Clean Steel String




1st VERSE:
| Bm | Bm | D | D |

| G  | G  | E | E |



2nd VERSE:
(E)                Bm                         D
 Q E Q  E  E  E    +W           W             E H..        Q.    E +H
----------------|-------------|-------------|------------|---------------|
----------12----|-(12)--------|-------------|------------|---------------|
---7-9/11----11-|-(11)--------|-------------|-2----------|---------------|
----------------|-------------|-------------|-2h4--------|-------4-(4)---|
----------------|-------------|-------------|-5----------|---------------|
----------------|-------------|-------------|------------|---------------|

  G                                   E
  W                 W                 W                 H       Q   E E   
|-----------------|-----------------|-----------------|---------0---x-x-|
|-----------------|-----------------|-----------------|---------0---x-x-|
|-----------------|-----------------|-1---------------|---------1---x-x-|
|-----------------|-----------------|-----------------|---------2---x-x-|
|-----------------|-----------------|-----------------|---------2---x-x-|
|-----------------|-----------------|-----------------|---------0---x-x-|



3rd VERSE:
  Bm                  D
  W         W         H..           E   E Q.  H
|-2-------|-2-------|-5-------------5-|-5-5---5-------|
|-3-------|-3-------|-7-------------x-|-x-x---7-------|
|-4-------|-4-------|-7-------------7-|-7-7---7-------|
|-4-------|-4-------|-7-------------7-|-9-7---7-------|
|-2-------|-2-------|-5-------------5-|-5-5---5-------|
|---------|---------|-----------------|---------------|

  G                   E
  W         W         W         E E E E E E E E
|-3-------|-3-------|-0-------|-------------0---|
|-3-------|-3-------|-0-------|---------0-------|
|-4-------|-4-------|-1-------|-1-1/9-----------|
|-5-------|-5-------|-2-------|-------9---9---9-|
|-5-------|-5-------|-2-------|-----------------|
|-3-------|-3-------|-0-------|-----------------|



4th VERSE:
  Bm                   D
  W                    W          E   E  E  E  E E E E
|-7-------|-7-------|-10--------|----------------------|
|-7-------|-7-------|-10--------|---/10-10-10-10\8-8\7-|
|-7-------|-7-------|-11--------|---/11-11-11-11\9-9\7-|
|-9-------|-9-------|-12--------|----------------------|
|-9-------|-9-------|-12--------|----------------------|
|-7-------|-7-------|-10--------|----------------------|

   G                    E
   W          W         W         W
|-----------|-3-------|-0-------|-0-------|
|-----------|-3-------|-0-------|-0-------|
|-<7>-------|-4-------|-1-------|-1-------|
|-----------|-5-------|-2-------|-2-------|
|-----------|-5-------|-2-------|-2-------|
|-----------|-3-------|-0-------|-0-------|



CHORUS:
     G                       F#
     W          +W           W          +W
||--15-------|-(15)-------|-14-------|-(14)-------|
||o-15-------|-(15)-------|-14-------|-(14)-------|
||--16-------|-(16)-------|-15-------|-(15)-------|
||--17-------|-(17)-------|-16-------|-(16)-------|
||o-17-------|-(17)-------|-16-------|-(16)-------|
||--15-------|-(15)-------|-14-------|-(14)-------|

   Bm                      E
   W          +W           W          +W
|-14-------|-(14)-------|-12-------|-(12)--------||
|-15-------|-(15)-------|-12-------|-(12)-------o||
|-16-------|-(16)-------|-13-------|-(13)--------||
|-16-------|-(16)-------|-14-------|-(14)--------||
|-14-------|-(14)-------|-14-------|-(14)-------o||
|----------|------------|-12-------|-(12)--------||



5th VERSE:
  Bm                   D
  W                    W           W
|-7-------|-7-------|-10--------|-10--------|
|-7-------|-7-------|-10--------|-10--------|
|-7-------|-7-------|-11--------|-11--------|
|-9-------|-9-------|-12--------|-12--------|
|-9-------|-9-------|-12--------|-12--------|
|-7-------|-7-------|-10--------|-10--------|

  G                   E
  W         W         W         E E E E E  E Q
|-3-------|-3-------|-0-----4-|---5---7-9b11r9---|
|-3-------|-3-------|-0-------|-5---5------------|
|-4-------|-4-------|-1-------|------------------|
|-5-------|-5-------|-2-------|------------------|
|-5-------|-5-------|-2-------|------------------|
|-3-------|-3-------|-0-------|------------------|



6th VERSE:
  Bm                        D
  W         Q.  E H         W          E  E  E E  E    +E  E E
|---------|-----7b7.5~----|----------|---10--------------------|
|---------|-----7b7.5~----|----------|------10-----------------|
|---------|-----7b7.5~----|----------|---------9b11--b(11)-9\7-|
|---------|-----9b9.5~----|----------|-------------------------|
|---------|-----9b9.5~----|----------|-------------------------|
|---------|---------------|----------|-------------------------|
[ Tab from: http://www.guitartabs.cc/tabs/k/kira_and_the_kindred_spirits/losing_you_tab_ver_2.html ]
  G                    E
  W           W        W         H      A  H
|-----------|--------|-0-------|-------10b12~-------|
|-----------|--------|-0-------|--------------------|
|-<7>-------|--------|-1-------|--------------------|
|-----------|--------|-2-------|--------------------|
|-----------|--------|-2-------|--------------------|
|-----------|--------|-0-------|--------------------|



7th VERSE:
  Bm                  |--3-| |--3-|    D
  W         E  E E  E E  E E E  E E    E  E  E  E   E E E E   H     E   E Q
|-7-------|-------------------------|-------10--------------|-----------------|
|-7-------|-----------9b11r9-9b11r9-|-10--------------------|-7~--------------|
|-7-------|-----------9b11r9-9b11r9-|--9b11----11pbr9-7-9-7-|------11pbr9-7---|
|-9-------|-------------------------|-----------------------|-----------------|
|-9-------|------9------------------|-----------------------|-----------------|
|-7-------|---10---10---------------|-----------------------|-----------------|

  G                         E
  W         Q.  E E E E E   E E E  E  E  E  E  E    E  E  E  E  E  E  Q
|---------|---------------|----------------------|------------------------|
|---------|---------------|----------------------|------------------------|
|---------|-----7-7-7-7-4-|/7-7-7/11-11-11-11/14-|-14-14-14/19-19-19-19---|
|---------|-----5-5-5-5-2-|/5-5-5/=9--9--9--9/12-|-12-12-12/17-17-17-17---|
|---------|---------------|----------------------|------------------------|
|---------|---------------|----------------------|------------------------|



CHORUS: same as previous



BRIDGE:
  D                 C                   G                 G
  Q   Q   Q   Q     A Q   Q   Q   Q     E E H       E E   H       E E +Q
|-----------------|-------------------|-------------3-3-|-3-------3-3-(3)-|
|---------2-------|-------3---5---3---|-----3-----------|---------3-5-(5)-|
|-------------3---|-------------------|-2h4---------4-2-|-4---------------|
|-----4-----------|-2/4---------------|-0---------------|-----------------|
|-5---------------|-------------------|-----------------|-----------------|
|-----------------|-------------------|-----------------|-----------------|

  D                 C                   G                 F#m
  Q   Q   Q   Q     a Q   Q   Q   Q     E E Q +H          E E E E E E Q
|-----------------|-------------------|-----------------|-------2---------|
|---------2-------|-------0---5---0---|-----3-(3)-------|---0-2---2-------|
|-------------3---|-------------------|-2h4-------------|-----------2-----|
|-----0-----------|-2/4---------------|-0---------------|-------------4~--|
|-5---------------|-------------------|-----------------|-----------------|
|-----------------|-------------------|-----------------|-----------------|



SOLO:
   Bm                                              D
   E E  E  E  +Q. E   E  E  E  E  +E  S S   E E    E E E E E E E E   +E  H.  E
|-------------------|---------------------------|------------------|-----------|
|---------10-(10)---|---------12-(12)-----------|------------------|-----------|
|-11-9-11---------9-|-11-9-11---------11p9----9-|-11\7-7\4-4\2-2-2-|-(2)-4---2-|
|-------------------|----------------------12---|------------------|-----------|
|-------------------|---------------------------|------------------|-----------|
|-------------------|---------------------------|------------------|-----------|

  G                                   E
  E E E E E E E E   E E E E E E E E   E E E E E E E E   +E   Q   Q    Q.
|-----------------|-----------------|-----------------|------5---7---10~---|
|---------5-3-5---|---------5-3-5-3-|-5-3-5-3-5-3-5-5-|-(5)--5---5----x----|
|-4-2-4-2-------2-|-4-2-4-2---------|-----------------|---------------x----|
|-----------------|-----------------|-----------------|--------------------|
|-----------------|-----------------|-----------------|--------------------|
|-----------------|-----------------|-----------------|--------------------|



CHORUS: same as previous



OUTRO:
   Bm                      E                      Bm
   W          +W           W          +W          W
|-14-------|-(14)-------|-12-------|-(12)-------|-7-------|
|-15-------|-(15)-------|-12-------|-(12)-------|-7-------|
|-16-------|-(16)-------|-13-------|-(13)-------|-7-------|
|-16-------|-(16)-------|-14-------|-(14)-------|-9-------|
|-14-------|-(14)-------|-14-------|-(14)-------|-9-------|
|----------|------------|-12-------|-(12)-------|-7-------|



LYRICS:

Tonight I'll go to bed
Unsatisfied
My world is caving in
And I've got no place left to hide

And I won't let you down
But I've got scars in my mind
Your life is in my hands
I can't pretend that things are fine

Although I'm scared
To sing you this song
I'm scared the words I say
Will cast in stone the damage done

And all that we have tried
And all that we did wrong
And who will hold the blame
And who will fight 'till love moves on

And I, I'm
I'm losing
Yes I'm losing you
Again

And how is that babe
How is that babe
How is that
My friend

You've got your pain to tend to
A day to put an end to
A womb to climb back into
And a love that never bends you

Well all it seems
I'm left with some clarity to lend you
All it seems I'm left with
Is some truth to offend you

And I, I'm
I'm losing
Yes I'm losing you
Again

Have you ever waited too long
When you knew your life's gone wrong

And I, I'm
I'm losing
Yes I'm losing you
Again
And again



- 9th /August /05
I'd love comments and corrections at Maitinin@gmail.com!
Comments