Kinky - Despus Del After Chords & Tabs

 

Despus Del After Chords & Tabs

Kinky Chords & Tabs

Version: 1 Type: Bass Tab 0 ratings
1 star 2 stars 3 stars 4 stars 5 stars
comments

Despus Del After Bass Tab

-----------------------------------------------------------------------------
                         Después Del After - Kinky
-----------------------------------------------------------------------------
Tabbed by: Etienne049
email: pope777@comcast.net

Standard tuning - 5 string bass (4 string bridge at bottom)

I just tabbed the main parts. If you listen to the song, getting the
order and rests is really simple. It's "Verse" around 75% of the time


Verse

G|--------------------------------|
D|--------------------------------|
A|----------------5-------5---7---|
E|-0--------4/7-------7-----------|
B|--------------------------------|


Transition

G|--------------------------------|--------------------------------|
D|--------------------------------|--------------------------------|
A|-2---2-2-0---0-0----------------|--------------------------------|
E|-----------------4---4-4--------|-2----2-2----------0----0-0-----|
B|--------------------------------|--------------------------------|


Chorus x2

G|--------------------------------|--------------------------------|
D|--------------------------------|--------------------------------|
A|-5---7-------5---7---5-7--------|-5---7------5---7-------7-------|
E|--------------------------------|--------------------------------|
B|--------------------------------|--------------------------------|


G|--------------------------------|--------------------------------|
D|--------------------------------|--------------------------------|
A|--------------------------------|--------------------------------|
E|-3---5-------3---5---3-5--------|-3---5------3---5-------5-------|
B|--------------------------------|--------------------------------|


Bridge (5 string - what is actually used)

G|--------------------------------|--------------------------------|
D|--------------------------------|--------------------------------|
A|--------------------------------|--------------------------------|
E|-3-55----3-55----3-55----3-55---|-3-55----3-55---------------0---|
B|--------------------------------|----------------3-------3-------|

[ Tab from: http://www.guitartabs.cc/tabs/k/kinky/despus_del_after_btab.html ]
G|--------------------------------|--------------------------------|
D|--------------------------------|--------------------------------|
A|--------------------------------|--------------------------------|
E|-3-55----3-55----3-55----3-55---|-3-55----3-55-------------------|
B|--------------------------------|----------------3-------3-------|


G|--------------------------------|--------------------------------|
D|--------------------------------|--------------------------------|
A|--------------------------------|--------------------------------|
E|-----0-------0-------0---3------|-3-55----3-55----3-55----3-55---|
B|--------------------------------|--------------------------------|


G|--------------------------------|--------------------------------|
D|--------------------------------|--------------------------------|
A|--------------------------------|--------------------------------|
E|-3-55----3-55---------------0---|-----0-------0------------------|
B|-----------------3-------3------|--------------------------------|





Bridge (4 string)

G|-0-22----0-22----0-22----0-22---|-0-22----0-22-------------------|
D|--------------------------------|----------------0-------0---2---|
A|--------------------------------|--------------------------------|
E|--------------------------------|--------------------------------|


G|-0-22----0-22----0-22----0-22---|-0-22----0-22-------------------|
D|--------------------------------|----------------0-------0-------|
A|--------------------------------|--------------------------------|
E|--------------------------------|--------------------------------|


G|-------------------------0------|-0-22----0-22----0-22----0-22---|
D|-----2-------2-------2----------|--------------------------------|
A|--------------------------------|--------------------------------|
E|--------------------------------|--------------------------------|


G|-0-22----0-22-------------------|--------------------------------|
D|----------------0-------0---2---|-----2-------2------------------|
A|--------------------------------|--------------------------------|
E|--------------------------------|--------------------------------|


=============================================================================
Comments