Kinks - You Really Got Me Chords & Tabs

 

You Really Got Me Chords & Tabs

Kinks Chords & Tabs

Version: 5 Type: Tab

You Really Got Me Tab

The Kinks – you really got me

|-------------------------|
|----------4-4------4-----|
|--5-5-3-3----5-3-5---5---|
|-------------------------|
|-------------------------|
|-------------------------|

x2 – this might not be right cos I only just worked it out.
|----------------------------------------|
|----------4-4------4------------4-4-4---|
|--5-5-3-3----5-3-5---5---5--3-3-------5-|
|----------------------------------------|
|----------------------------------------|
|----------------------------------------|

just kinda mess about with it n it works
[ Tab from: http://www.guitartabs.cc/tabs/k/kinks/you_really_got_me_tab_ver_5.html ]
then the “YOU REALLY GOT ME “ bit is whichever of these

|-------------|             
|---3-5-5-3-5-|              
|---3-5-5-3-5-|
|---3-5-5-3-5-|
|-------------|
|-------------| x 3 then go 

|--------|
|---3—-1-|
|---3—-1-|
|---3—-1-|
|--------|
|--------| or you can do it singular like

|----------------------------------------|
|----------------------------------------|
|-3-5-5-3-5---3-5-5-3-5---3-5-5-3-5-3-1--|
|----------------------------------------|
|----------------------------------------|
|----------------------------------------|

my 1st tab so be fair J
got any probs just email me at mosh_it_up_@hotmail.com