Kinks - You Really Got Me Chords & Tabs

 

You Really Got Me Chords & Tabs

Kinks Chords & Tabs

Version: 4 Type: Tab 0 ratings
1 star 2 stars 3 stars 4 stars 5 stars
comments

You Really Got Me Tab

   
----------------------------------------------------------------------------
			YOU REALLY GOT ME - The Kinks
----------------------------------------------------------------------------


Tuning:DGCFAD

Intro (2x)
     
d|-------------------------------------------------------------------------|
A|-------------------------------------------------------------------------|
F|-------------------------------------------------------------------------|
C|---5--7--5/--7-----------------------------------------------------------|
G|---5--7--5/--7-----------------------------------------------------------|
D|---3--5--3/--5-----------------------------------------------------------|

Verse & Chorus

d|-------------------------------------------------------------------------|
A|-------------------------------------------------------------------------|
F|-------------------------------------------------------------------------|
C|--5--7-7--5/-7-----------------------------------------------------------|
G|--5--7-7--5/-7-----------------------------------------------------------|
D|--3--5-5--3/-5-----------------------------------------------------------|

d|-------------------------------------------------------------------------|
A|-------------------------------------------------------------------------|
F|-------------------------------------------------------------------------|
C|--7--9-9--7/-9-----------------------------------------------------------|
G|--7--9-9--7/-9-----------------------------------------------------------|
D|--5--7-7--5/-7-----------------------------------------------------------|

d|-------------------------------------------------------------------------|
A|-------------------------------------------------------------------------|
F|--7-9-9--7/-9------------------------------------------------------------|
C|--7-9-9--7/-9------------------------------------------------------------|
G|--5-7-7--5/-7------------------------------------------------------------|
D|-------------------------------------------------------------------------|

Guitar Solo
[ Tab from: http://www.guitartabs.cc/tabs/k/kinks/you_really_got_me_tab_ver_4.html ]
d|--5-----5-----5-----5-----5-----5----------------------------------------|
A|--5-----5-----5-----5-----5-----5------------5--------------5--2--5--2---|
F|--7b(8)-7b(8)-7b(8)-7b(8)-7b(8)-7b(8)--7b(8)---7b(8)r7p5----5--2--5--2---|
C|---------------------------------------------------------7---------------|
G|-------------------------------------------------------------------------|
D|-------------------------------------------------------------------------|

d|-------------------------------------------------------------------------|
A|-5-2-5-2--------5------------------5--2--5--2--5-------------------------|
F|-5-2-5-2--7b(8)----7b(8)r7p5-------5--2--5--2--5---7b(8)r7p5-------------|
C|-----------------------------7--------------------------------7----------|
G|-------------------------------------------------------------------------|
D|-------------------------------------------------------------------------|

d|-8p5---------------------------------------------------------------------|
A|-----8p5----------5-----------------5--2--5-2-5---------------5----------|
F|----------7b(8)r7---7b(8)r7p5-------5--2--5-2-5---7b(8)-7b(8)------------|
C|------------------------------7------------------------------------------|
G|-------------------------------------------------------------------------|
D|-------------------------------------------------------------------------|

d|--------------8p5--------------------------------------------------------|
A|-------------------8p5--------5----------------5-2-5-2-5-----------------|
F|-7b(8)r7p5--------------7b(8)----7b(8)r7p5-----5-2-5-2-5---7b(8)-7b(8)---|
C|-----------7-------------------------------7-----------------------------|
G|-------------------------------------------------------------------------|
D|-------------------------------------------------------------------------|

d|-------------8p5---------------------------------------------------------|
A|-----------------8p5-----------------------------------------------------|
F|-7b(8)-7b(8)----------7b(8)--7b(8)r7p5-----------------------------------|
C|----------------------------------------7--------------------------------|
G|-------------------------------------------------------------------------|
D|-------------------------------------------------------------------------|

Chords
F (355xxx)
G (577xxx)
A (799xxx)
E (x577xx)
F (x799xx)

| /  slide up
| \  slide down
| h  hammer-on
| p  pull-off
| ~  vibrato
| +  harmonic
| x  Mute note
============================================================================
Comments