Kinks - Waterloo Sunset Intro-riff Chords & Tabs

 

Waterloo Sunset Intro-riff Chords & Tabs

Kinks Chords & Tabs

Version: 1 Type: Tab 0 ratings
1 star 2 stars 3 stars 4 stars 5 stars
comments

Waterloo Sunset Intro-riff Tab

#----------------------------------PLEASE NOTE---------------------------------#
#This file is the author's own work and represents their interpretation of the #
#song. You may only use this file for private study, scholarship, or research. #
#------------------------------------------------------------------------------#
#


From 9605705J@bunyip.ph.rmit.edu.au Fri Mar 21 11:36:15 1997
Date: Fri, 14 Mar 1997 13:09:20 EST-10ESUT
From: MENDE JOVESKI 
To: guitar@nevada.edu
Subject: TAB: Waterloo Sunset - The Kinks

Title:   Waterloo Sunset
Artist:  The Kinks
Album:   Something Else by the Kinks (I think), anyway the song was released in mid 1967.


main riff during intro:

(for bending the strings, don't go to far - just enough to slightly change the pitch - it's not a Jimi Hendrix solo!)
[ Tab from: http://www.guitartabs.cc/tabs/k/kinks/waterloo_sunset_intro_riff_tab.html ]
E--------------------------------------------------
B--------4-----------------------------------------
G--5--3-----5b--3b-----------------3---------------
D------------------------3--/5--3-----5b--3b-------
A--------------------------------------------------
E--------------------------------------------------

E--------------------------------------------------
B--------------------------------------------------
G--------------------------------------------------
D-------------5---3--------------------------------
A--3--/5-------------6---3------------------------
E----------6----------------------------------------



riff #2  (play this wherever you see an asterisk *)

E---------------------------------------------------
B---------------------------------------------------
G---5---8---5---/3----------------------------------
D-------------------3-------------------------------
A---------------------------------------------------
E---------------------------------------------------
Comments