Kinks - Waterloo Sunset Chords & Tabs

 

Waterloo Sunset Chords & Tabs

Kinks Chords & Tabs

Version: 1 Type: Chords 1 rating
1 star 2 stars 3 stars 4 stars 5 stars
comments

Waterloo Sunset Chords

   
#----------------------------------PLEASE NOTE---------------------------------#
#This file is the author's own work and represents their interpretation of the #
#song. You may only use this file for private study, scholarship, or research. #
#------------------------------------------------------------------------------#

The Kinks - Waterloo sunset (chords)

chords:
B    E   B7   A   F#m   C#/E#  A/C#   F#   B   E5/B   A    G#m   E/B   B5   A5
#    0   2    0   2     1      #      2    7   #      #    4     7     #    #
4    0   0    2   2     2      2      2    7   #      #    4     9     #    #
4    1   2    2   2     1      2      3    8   9      6    4     9     #    #
4    2   1    2   4     3      2      4    9   9      7    6     9     9    7
2    2   2    0   4     #      4      4    9   7      7    6     7     9    7
#    0   #    #   2     #      #      2    7   7      5    4     7     7    5
[ Tab from: http://www.guitartabs.cc/tabs/k/kinks/waterloo_sunset_crd.html ]
intro
(bass)
B   B/A   B/G#   B/F#   B/E   B/D#  B/C#  B    

 B
-----------------------------
-----------------------------
-----------------------------
-----------------------------
-0--0-0-0--0-0-0--0-0-0--0-0-
-----------------------------

            E                 B7               A
---------------------------------------------------
-------5-------------------------------------------
-s6--4---s6-4-----------4--------------------------
----------------4-s6--4---s6--4----------6-4---2---
-----------------------------------2-4-2---------4-
---------------------------------------------------

riff 1
--------------
------5-------
-2-s6---6s4-2-
--------------
--------------
--------------

Outro
rpt intro
then.....
B5    A5 B5     A5 B5     A5 B5     A5 B5     A5 B5     A5 B5     A5 B5     E 


Tabman_007 ;)
Comments