Kinks - Victoria Chords & Tabs

 

Victoria Chords & Tabs

Kinks Chords & Tabs

Version: 1 Type: Tab 1 rating
1 star 2 stars 3 stars 4 stars 5 stars
comments

Victoria Tab

   
#----------------------------------PLEASE NOTE---------------------------------#
#This file is the author's own work and represents their interpretation of the #
#song. You may only use this file for private study, scholarship, or research. #
#------------------------------------------------------------------------------#

The Kinks - Victoria


G
-------|
-------|
-------|
-----5-|
-5-7---|
-------|

     D       G        C           G        D       G
-----------------------------------------------------|
-----------------------------------------------------|
----------------------0------------------------------|
-----0------------0-2---------0-2-0--------0---------|
-0-2-----2-0---------------------------0-2-----0-2---|
-------------3-------------------------------------3-|
[ Tab from: http://www.guitartabs.cc/tabs/k/kinks/victoria_tab.html ]
     D       G         C          G        D       G
-----------------------------------------------------|
-----------------------------------------------------|
-----7-----------------12------------------7---------|
-7-9-----9-7-5---12-14------12-14-12---7-9-----9-7-5-|
-----------------------------------------------------|
-----------------------------------------------------|


chorus

 G       D           Em    Bm         D          G
------------2---0---2--------------------2--2h3p2-|
----------3---3---3-----------3---2----3----------|
----------------------------4---4-----------------|
--------------------------------------------------|
--------------------------------------------------|
--------------------------------------------------|     
Victoria         Victoria        Victoria  victoria


solo
Em pentatonic

 G                                 D
-------------------------------------|
-------------------------------------|
-------------------------------------|
-------------------------------------|
-10-10-10-10-7-7-7-7-5-5-5-5-2-2-2-2-|
-------------------------------------|


 G                             D
---------------------------------|
---------------------------------|
---------------------------------|
---------------------------------|
-7-7-7-7-5-5-5-5-2-2-2-2-0-0-0-0-|
---------------------------------|


Tabman_007 ;)
Comments