Kinks - Picture Book Chords & Tabs

 

Picture Book Chords & Tabs

Kinks Chords & Tabs

Version: 3 Type: Tab 0 ratings
1 star 2 stars 3 stars 4 stars 5 stars
comments

Picture Book Tab

x = open string

These tabs can be played along with the whole song, but they aren't in the actual record.

e--------------------------------------------------]
b--------------------------------------------------]
g--------------------------------------x-----------]
d--------------------------x--x--2--4-----5--4--3--] x2
a--------------x--x--2--4--------------------------]
e--x--x--2--4--------------------------------------]

Picture yourself, when you're gettin' old . . .
[ Tab from: http://www.guitartabs.cc/tabs/k/kinks/picture_book_tab_ver_3.html ]
e--------------------------------------------------]
b--------------------------------------------------]
g--------------------------------------x-----------]
d--------------------------x--x--2--4-----5--4--3--] x2
a--------------x--x--2--4--------------------------]
e--x--x--2--4--------------------------------------]

Sat by a fireside, a ponderin' on . . .

chorus - (not yet tabbed)

Picture book, pictures of your mama, taken by your papa a long time ago. 
Picture book, of people with each other, to prove they love each other a long time ago. 
Na, na, na, na, na na. 
Na, na, na, na, na na. 
 
Picture book. 

(Repeat above tabs for second verse.)
Comments