Kinks - Picture Book Chords & Tabs

 

Picture Book Chords & Tabs

Kinks Chords & Tabs

Version: 2 Type: Tab 0 ratings
1 star 2 stars 3 stars 4 stars 5 stars
comments

Picture Book Tab

   
ok

there's a lot going on in this song, but its all just playing around with the chords.

here we go.

Chords: E, A, D, G, C, and F (all open chords)

(Intro-bass)

e[-------------------------------------------------------|
B[-------------------------------------------------------|
G[------------------------------------0------------------|
D[--------------------------0-0--2-4-----4---------------|
A[----------------0-0--2-4-------------------------------|
E[-12/--0-0--2-4-----------------------------------------|

e[-------------------------------------------------------|
B[-------------------------------------------------------|
G[------------------------------0------------------------|
D[---------------------0-0-2-4---------------------------|
A[-----------0-0--2-4------------------------------------|
E[-0-0--2-4----------------------------------------------|

[ Tab from: http://www.guitartabs.cc/tabs/k/kinks/picture_book_tab_ver_2.html ]
E       A         D             G
Picture yourself, when your getting old,
E       A         D             G
Sat by the fireside, and ponder it all (?)
C              F               C
Picture Book, pictures of your mama,
F              C      F          C
taken by your poppa, a long time ago...
C             F                C
Picture book, of people with eachother
F                      C        F          C
to prove they love eachother, a long time ago...
F           C
Na, na, na, na, na, na...
F           C
Na, na, na, na, na, na...

Picture book!

(repeat intro)

verse 2

A picture of you... in your birthday suit
You sat in the sun on a hot afternoon.
Picture Book, you momma and your poppa, your fat old Uncle Charlie,
a-boozing (cruising?) with their freinds.
Picture Book, a holiday in August,
outside a bed and breakfast, in sunny South Bend.
Picture Book, those days when you were happy,
when you were just a baby, a long time ago...
Na, na, na, na, na, na... (x4)
Picture Book! (x4)

(single guitar)
Picture Book, Na, na, na, na, na,
Na, na, na, na, na...
A scooby-dooby-doo...

(entire band)

Picture Book, Na, na, na, na, na,
Na, na, na, na, na...
A scooby-dooby-doo...

Picture Book, pictures of your momma,
Taken by you poppa, a long time ago
A Long time ago... (x4)

Yeah, yeah, yeah...

Outro (basically same as intro)


easy song right?

figure it out if its not, dummy!
Comments