Kinks - Destroyer Chords & Tabs

 

Destroyer Chords & Tabs

Kinks Chords & Tabs

Version: 1 Type: Tab 0 ratings
1 star 2 stars 3 stars 4 stars 5 stars
comments

Destroyer Tab

#----------------------------------PLEASE NOTE--------------------------------#
#This file is the author's own work and represents their interpretation of the#
#song. You may only use this file for private study, scholarship, or research.#
#-----------------------------------------------------------------------------#


Date: Thu, 23 Apr 1998 17:11:46 PDT
From: Bowie McLean 
Subject: k/kinks/destroyer.tab

Author: The Kinks
Title: Destroyer
Album: Come Dancing With the Kinks
Transcribed by: Bowie
E-mail:landrewl@hotmail.com

This is one of my fravorite Kinks songs and thought I'd tab it up.
Please send me any corrections

riff 1
E----------------------------------------------------------------------------
B----------------------------------------------------------------------------
G----------------------------------------------------------------------------
D----------------------------------------------------------------------------
A-7--7-5--5--10-10-10-7------------------------------------------------------
E-5--5-3--3--8--8--8--5------------------------------------------------------

[ Tab from: http://www.guitartabs.cc/tabs/k/kinks/destroyer_tab.html ]
riff 2
E----------------------------------------------------------------------------
B----------------------------------------------------------------------------
G----------------------------------------------------------------------------
D----------------------------------------------------------------------------
A-11--9-11--9-9--7---9----7--------------------------------------------------
E-9---7-9---7-7--5---7----5--------------------------------------------------


riff 3
E----------------------------------------------------------------------------
B----------------------------------------------------------------------------
G----------------------------------------------------------------------------
D----------------------------------------------------------------------------
A-10---------------12--------------------------------------------------------
E-8----------------10--------------------------------------------------------



E----------------------------------------------------------------------------
B----------------------------------------------------------------------------
G----------------------------------------------------------------------------
D----------------------------------------------------------------------------
A-14---------------------15--------------------------------------------------
E-12---------------------13--------------------------------------------------

play
these two chords or do the short solo which I don't feel like tabbing.)

Here's the layout:
riff 1  Starts with Bass.  Guitar comes in at Stop!

riff 1
riff 2
riff 1
riff 2
riff 3
riff 2
riff 1
riff 2
riff 3
riff 2


This was done late at night so sorry for any mistakes.

Bowie
Comments