Kinks - Dead End Street Intro-riff Chords & Tabs

 

Dead End Street Intro-riff Chords & Tabs

Kinks Chords & Tabs

Version: 1 Type: Chords 0 ratings
1 star 2 stars 3 stars 4 stars 5 stars
comments

Dead End Street Intro-riff Chords

   
#----------------------------------PLEASE NOTE---------------------------------#
#This file is the author's own work and represents their interpretation of the #
#song. You may only use this file for private study, scholarship, or research. #
#------------------------------------------------------------------------------#

DEAD END STREET- The Kinks

chords
F#m7b5   Fmaj7    Am/E     Am7b5/G
0        0        0        #
1        1        1        1
2        2        2        2
2        2        2        1
#        #        0        #
2        1        0        3
[ Tab from: http://www.guitartabs.cc/tabs/k/kinks/dead_end_street_intro_riff_crd.html ]
intro
 Am                       Riff 1(rpt2X
------------------------ -------------------------
------------------------ -------------------------
------------------------ -------------------------
------------------------ -------------------------
-0--0--0--0--0--0--0--0- -0---2-2---3-3---2-2---0-
------------------------ -------------------------

Asus2                
---------------
---0-----0-----
-----2-----2---
-------2-----2-
-0-------------
---------------


=================================================================================================================================================================================================================================================


The Kinks: David Watts

intro

riff 1(rpt)
muted
---------------------------------------------------------
---------------------------------------------------------
----2-2----4-4----2-2----5-5----4-4----2-2----2-2----2-2-
-0------0------0------0------0------0-------0-----0------
---------------------------------------------------------
---------------------------------------------------------
Comments