Kinks - Brainwashed Chords & Tabs

 

Brainwashed Chords & Tabs

Kinks Chords & Tabs

Version: 1 Type: Tab 0 ratings
1 star 2 stars 3 stars 4 stars 5 stars
comments

Brainwashed Tab

   
#----------------------------------PLEASE NOTE---------------------------------#
#This file is the author's own work and represents their interpretation of the #
#song. You may only use this file for private study, scholarship, or research. #
#------------------------------------------------------------------------------#

This is Brainwashed by the Kinks. No doubt, one of the best songs 
ever. It is in dropped D tuning. Easy song and FUN song. I dont have 
all the lead guitar, but most of it. To see where it all fits in, see
the bottom. 

Intro:
E|--------------------------------------------------------------------
B|--------------------------------------------------------------------
G|--------------------------------------------------------------------
D|--------------------------------------------------------------------
A|--------------------------1--3-3------------------------------------
D|-5-5--0-0-3--5-5------5-5-------------------------------------------

Riff One:

E|--------------------------------------------------------------------
B|--------------------------------------------------------------------
G|--------------------------------------------------------------------
D|-12--12--12-10-8-5--------------------------------------------------
A|-12--12--12-10-8-5--------------------------------------------------
D|-12--12--12-10-8-5--------------------------------------------------

Riff Two:

    G
E|--3-----------------------------------------------------------------
B|----6-3-6-3---3-----------------------------------------------------
G|------------5---5-3-5-3---3-----------------------------------------
D|------------------------5---5-3-5-3---------------------------------
A|------------------------------------5--3-5--------------------------
D|--------------------------------------------------------------------
[ Tab from: http://www.guitartabs.cc/tabs/k/kinks/brainwashed_tab.html ]
Riff Three:
    C
E|--8-----------------------------------------------------------------
B|----11-8-11-8----8--------------------------------------------------
G|--------------10---10-8-10-8----8-----------------------------------
D|-----------------------------10---10-8-10-8-------------------------
A|--------------------------------------------10--8-10----------------
D|--------------------------------------------------------------------

Riff Four:

E|--------------------------------------------------------------------
B|--------------------------------------------------------------------
G|--------------------------------------------------------------------
D|-5-5-5-5-8-8-8-8-10-10-10-10-12--12-12------------------------------
A|-5-5-5-5-8-8-8-8-10-10-10-10-12--12-12------------------------------
D|-5-5-5-5-8-8-8-8-10-10-10-10-12--12-12------------------------------

Riff Five:

E|--------------------------------------------------------------------
B|--------------------------------------------------------------------
G|--------------------------------------------------------------------
D|-5-5--8-8--10-10--12-12---------------------------------------------
A|-5-5--8-8--10-10--12-12---------------------------------------------
D|-5-5--8-8--10-10--12-12---------------------------------------------

Riff Six:

E|--------------------------------------------------------------------
B|--------------------------------------------------------------------
G|--------------------------------------------------------------------
D|-10-10-10-10-9-9-9-9-8-8-8-8-7-7-7-7--10-10--9-9--8-8--7-7----------
A|-10-10-10-10-9-9-9-9-8-8-8-8-7-7-7-7--10-10--9-9--8-8--7-7----------
D|-10-10-10-10-9-9-9-9-8-8-8-8-7-7-7-7--10-10--9-9--8-8--7-7----------

Intro
Riff One
Riff Two
Chorus
Riff Three
Riff Four
Riff One
Riff Two
Verse 2
"Chorus"
Riff Five
Riff Six

and you get the point....its fun.
Comments