Kinks - All Day And All Of The Night Chords & Tabs

 

All Day And All Of The Night Chords & Tabs

Kinks Chords & Tabs

Version: 4 Type: Tab 0 ratings
1 star 2 stars 3 stars 4 stars 5 stars
comments

All Day And All Of The Night Tab

Ok - heres the solo, I couldnt be bothered with the rest.


|--------------------------------------------------------------------|
|-----3-------------------------------------------3------------------|
|--5-----5--5b6--5b6--5b6--5b6--5b6--5b7--5p3-----3-------3-----3----|
|----------------------------------------------5-------5-----5-----5-|
|--------------------------------------------------------------------|
|--------------------------------------------------------------------|


|--------------------------------------------------------------------|
|----------------------------------------------3--3-----3------------|
|----------3-------3-------3-------3-----3-----3--3-----3-----3h5----|
|--5--3h5-----3h5-----3h5-----3h5-----5-----5--------5-----5-------5-|
|--------------------------------------------------------------------|
|--------------------------------------------------------------------|

[ Tab from: http://www.guitartabs.cc/tabs/k/kinks/all_day_and_all_of_the_night_tab_ver_4.html ]
|-------------------------------------------------------------|
|--3--3-----3-------------------------------------------------|
|--3--3-----3-----3h5--5b7--5b7--5b7--5b7--5b7--5b7---5p3-----|
|--------5-----5-------------------------------------------5--|
|-------------------------------------------------------------|
|-------------------------------------------------------------|


|-----------------------15--15---------------------------------------|
|--------------------------------------------------------------------|
|------15--17--17b19------------17p15------15----------15------15----|
|--17----------------------------------17----------17------17--------|
|--------------------------------------------------------------------|
|--------------------------------------------------------------------|


|---------------------------------------------------------------|
|------17-----17----------17-----17-----------------------------|
|--17--17b19--17b19---17--17b19--17b19-----15------15-------15--|
|----------------------------------------------17------17-------|
|---------------------------------------------------------------|
|---------------------------------------------------------------|


|-------------------------------------------------------------|
|-------------------------------------------------------------|
|---------15---------15---------15---------15--15----15-------|
|--15h17------15h17------15h17------15h17----------------17\--|
|-------------------------------------------------------------|
|-------------------------------------------------------------|
Comments