Kinks - All Day And All Of The Night Chords & Tabs

 

All Day And All Of The Night Chords & Tabs

Kinks Chords & Tabs

Version: 1 Type: Bass Tab 1 rating
1 star 2 stars 3 stars 4 stars 5 stars
comments

All Day And All Of The Night Bass Tab

-------------------------------------------------------------------------------
All of the Day and All of the Night- The Kinks			     
-------------------------------------------------------------------------------

Tabbed By : Amy
e-mail: basschick@hotmail.co.uk

Tuning: Standard

There's a tricky rhythm to this, so you'll just have to listen to the song a couple of times.

  Intro
G|---------------------------------------------------------|
D|---------------------------------------------------------|
A|--------------------1-1-1--------------------------------|
E|---1---3-3---1-1------------3----------------------------|

  Verse
G|---------------------------------------------------------|
D|---------------------------------------------------------| x4
A|--------------------1-1-1--------------------------------|
E|---1---3-3---1-1------------3----------------------------|
[ Tab from: http://www.guitartabs.cc/tabs/k/kinks/all_day_and_all_of_the_night_btab.html ]
  Pre Chorus
G|---------------------------------------------------------|
D|---------------------------------------------------------|
A|---1-1-1-1-----------0-0-------222-----------------------|
E|-1----------1-1-1-1-------3-3-------44343----------------|

  Chorus
G|---------------------------------------------------------|
D|---0-0--------33200--------------------------------------| x4
A|--------3-3-----------303--------------------------------|
E|---------------------------------------------------------|

Verse

Pre Chorus

Chorus

Straight after chorus play:
G|----------------------------------|
D|-----3-----3-0--------------------|
A|----------------------------------|
E|----------------------------------|

Guitar Solo (just keep playing the verse)

Verse

Pre Chorus

Chorus

Outro
G|----------------------------------|
D|----0-------3---0-----------------|
A|--------3-------------------------|
E|----------------------------------|
Comments