Kinison - Youll Never Guess Who Died Chords & Tabs

 

Youll Never Guess Who Died Chords & Tabs

Kinison Chords & Tabs

Version: 1 Type: Bass Tab 0 ratings
1 star 2 stars 3 stars 4 stars 5 stars
comments

Youll Never Guess Who Died Bass Tab

Band: The Kinison 
Song: You'll never guess who died

Tabbed By : Mcbeth-Atticus, Davis L.
e-mail: final_nakata@hotmail.com

My first tabbed song. Great song, great band.
Enjoy! :)

[Intro] (0:14)

G|--------------------------------------------------------------------------|
D|---------------------0-5-55---0-5-55--------------------------------------|
A|---0-5-55---0-5-55---------------------0-5-55---0-5-55---0-3-33---0-3-33--|
E|--------------------------------------------------------------------------|

[Verse]

G|--------------------------------------------------------------|
D|-----------232----------232-555-0-555-0-555-0---7-5-----------| x4   
A|---5-555-03----5-555-03---------------------------------------|
E|--------------------------------------------------------------|

[Chorus.1]

G|--------------------------------------------------------------|
D|--------------------------------------------------------------| X2
A|---5-55-7-77-8-88-12-1212-10-1010-10-1010-10-1010-10-1010-----| 
E|--------------------------------------------------------------|

[End.Chorus.1] (You just play this once in the whole song)
[ Tab from: http://www.guitartabs.cc/tabs/k/kinison/youll_never_guess_who_died_btab.html ]
G|--------------------------------------------------------------|
D|------------------12-1212-------------------------------------|
A|---5-55-7-77-8-88---------5-----------------------------------|
E|--------------------------------------------------------------|

[Verse] x4

[Chorus.2]

G|--------------------------------------------------------------|
D|--------------------------------------------------------------| X4
A|---5-55-7-77-8-88-12-1212-10-1010-10-1010-10-1010-10-1010-----| 
E|--------------------------------------------------------------|

[Bridge]

G|--------------------------------------------------------------|
D|--------------------------------------------------------------| X5
A|---5-55-5-55-5-55-5-55-3-33-3-33-3-33-3-33--------------------| 
E|--------------------------------------------------------------|

[Chorus.3]

G|--------------------------------------------------------------|
D|--------------------------------------------------------------| X3
A|---5-55-7-77-8-88-12-1212-10-1010-10-1010-10-1010-10-1010-----| 
E|--------------------------------------------------------------|

[End.Chorus.3]

G|--------------------------------------------------------------|
D|--------------------------------------------------------------| 
A|---5-55-7-77-8-88-12-1212-10-1010-10-1010-10-1010-1010--------| 
E|--------------------------------------------------------------|
Comments