Kingsmen - Louie Louie Chords & Tabs

 

Louie Louie Chords & Tabs

Kingsmen Chords & Tabs

Version: 5 Type: Bass Tab 0 ratings
1 star 2 stars 3 stars 4 stars 5 stars
comments

Louie Louie Bass Tab

Dude, this is the real one! If you can't play this u don't deserve to play the bass

G:----------------|
D:---00-222-00----|
A:000-------------|
E:----------------|

"Louie Louie......."
[ Tab from: http://www.guitartabs.cc/tabs/k/kingsmen/louie_louie_btab_ver_5.html ]
G:--------------|
D:---0-0--222-0-|
A:0-0-----------|
E:--------------|

G:----------------|
D:---00-222-00----|
A:000-------------|
E:----------------|

"Louie Louie......."

G:--------------|
D:---0-0--222-0-|
A:0-0-----------|
E:--------------|

Dude this this continues until the end of the song
Comments