Kings X - Groove Machine Chords & Tabs

 

Kings X Chords & Tabs

Version: 1 Type: Bass Tab 0 ratings
1 star 2 stars 3 stars 4 stars 5 stars
comments

Groove Machine Bass Tab

Groove Machine

INTRO:
|---------------------|			|--------------|
|------------6--------|			|--------------|
|---4-6-7-8-----------|  (x3) 		|---466-4-----| (X1)
|-6-------------------|			|-6------------|

Repeat INTRO

CHORUS:
|---------------------|			|--------------|
|------------6--------|			|--------------|
|---4-6-7-8-----------|  (x3) 		|---48-7-6----| (X1)
|-6-------------------|			|-6------------|

A# (let ring for 8 beats) Note: A# is 6th fret on E string 

|-----------------------------------|
|------------6----------------------|
|---4-6-7-8--------------48-7-6----| (X1)
|-6--------------------6------------|

A# (let ring for 8 beats)
[ Tab from: http://www.guitartabs.cc/tabs/k/kings_x/groove_machine_btab.html ]
|-----------------------------------|
|------------6----------------------|
|---4-6-7-8--------------48-7-6----| (X1)
|-6--------------------6------------|

INTRO (2 x)

CHORUS

A# (let ring for 8 beats)

|-----------------------------------|
|------------6----------------------|
|---4-6-7-8--------------48-7-6----| (X1)
|-6--------------------6------------|

A# (let ring for 8 beats)

|-----------------------------------|
|------------6----------------------|
|---4-6-7-8--------------48-7-6----| (X1)
|-6--------------------6------------|

INTRO (2x)

GUITAR LEAD  Step to C and play CHORUS 2x(add 2 to each number for C)

A# whole note fade into spoons

Repeat Intro to end (Last note of song is C# - 4th fret on A string)






Comments