Kings X - Bit Of Soul Chords & Tabs

 

Bit Of Soul Chords & Tabs

Kings X Chords & Tabs

Version: 1 Type: Tab 0 ratings
1 star 2 stars 3 stars 4 stars 5 stars
comments

Bit Of Soul Tab

Home New Tabs Guitar Forums Cool! Lessons ICQ Buddies Premier Sites

 dropped d, down half a step.

verse      (first time) (second time)    (third time . . .

----------------------|-----------------|-----------------------------------
-8-8-7-8-7------------|-----------------|-----------------------------------
-7-7-7-7-7----4-4-4-2-|-9-9-9--4-4-4-6/-|-7-2-------------------------------
-7-7-7-7-7----2-2-2-0-|-7-7-7--2-2-2-4/-|-5-0-------------------------------
-5-5-5-5-5------------|-----------------|-----------------------------------
----------------------|-----------------|-----------------------------------


. . . . . . . . . . .)

----------------------------------------------------------------------------
----------------------------------------------------------------------------
-4-4-4-4-6-7----------------------------------------------------------------
-2-2-2-2-4-5----------------------------------------------------------------
-2-2-2-2-4-5-0-2-3v---------------------------------------------------------
----------------------------------------------------------------------------


chorus
                (notes in parenthesis sometimes played)
------------------(3)-3-----------------------------------------------------
------------------(3)-3-----------------------------------------------------
----------------------------------------------------------------------------
-0--------3--------5--------------------------------------------------------
-0--0-2-3-3--3-5-7-5--------------------------------------------------------
-0--0-2-3-3--3-5-7-5--------------------------------------------------------


(1st ending of chorus [all times])
[ Tab from: http://www.guitartabs.cc/tabs/k/kings_x/bit_of_soul_tab.html ]
----------------------------------------------------------------------------
----------------------------------------------------------------------------
----------------------------------------------------------------------------
-0--------------------------------------------------------------------------
-0--------------------------------------------------------------------------
-0--------------------------------------------------------------------------


(2nd ending of chorus [all times, not sure if that last chord is correct])

---5------------------------------------------------------------------------
---5------------------------------------------------------------------------
-------7-7-7-7--------------------------------------------------------------
-7---7-5-5-5-5--------------------------------------------------------------
-7---7-5-5-5-5--------------------------------------------------------------
-7---7-7-7-7-7--------------------------------------------------------------


bridge (you can figure out the timing :-P)

-----------------------|---2----------|-------------------------------------
---------------------7-|--------------|-------------------------------------
-7-7-7-7/9/11/12\--5---|-4----5-7-7h9-|-7-----------------------------------
-0-0-0-0-0--0--0-------|------0-0-0---|-0-----------------------------------
-----------------------|--------------|-------------------------------------
-----------------------|--------------|-------------------------------------


ending

----------------------------------------------------------------------------
-8-8-7----------------------------------------------------------------------
-7-7-7----------------------------------------------------------------------
-7-7-7---0------------------------------------------------------------------
-5-5-5-5\0------------------------------------------------------------------
---------0------------------------------------------------------------------
Comments