Kings Of Leon - Where Nobody Knows Chords & Tabs

 

Where Nobody Knows Chords & Tabs

Kings Of Leon Chords & Tabs

Version: 1 Type: Tab 0 ratings
1 star 2 stars 3 stars 4 stars 5 stars
comments

Where Nobody Knows Tab

   
#----------------------------------PLEASE NOTE---------------------------------#
#This file is the author's own work and represents their interpretation of the #
#song. You may only use this file for private study, scholarship, or research. #
#------------------------------------------------------------------------------#

Group/Singer Name:      Kings Of Leon
Song:                   "Where Nobody Knows"
Additional Info:        Aha Shake Heartbreak - Track 13 (Bonus Track)
Tuning:                 Standard - [EADGBe]
Tabbed By:              Dean Hill - Comments, Suggestions? the.scotsman@blueyonder.co.uk


[Chords Used]   A(X02220); E(022100); D(XX0232) + SEE TAB


[Intro]         |DRUMS             |DRUMS             |DRUMS + BASS      |DRUMS + BASS      |
                |A                 |A                 |A                 |A                 |



******************************************
*KINGS OF LEON - WHERE NOBODY KNOWS - TAB*
******************************************



b  -  Bend
sb -  Slow Bend
() -  Bracketed numbers are the note you bend up to
h  -  Hammer On
p  -  Pull Off
r  -  Return
/  -  Slide Up
  -  Slide Down
d  -  Strum Down
u  -  Strum Up
PM -  Palm Mute
 -  Natural Harmonics
^  -  Vibrato






[INTRO] - [CALEB] @ 00:09

    & | 1 & 2 & 3 & 4 & | 1 & 2 & 3 & 4 & | 1 & 2 & 3 & 4 & | 1 & 2 & 3 & 4 & |

        A                 A                 A                 A
e |-----5---5-------------5---5-------------5---5-------------5---5--------------------|
B |-----5---5-------------5---5-------------5---5-------------5---5--------------------|
G |-----6---6-------------6---6-------------6---6-------------6---6--------------------|
D |-----7---7-------------7---7-------------7---7-------------7---7--------------------|
A |-----7---7-------------7---7-------------7---7-------------7---7--------------------|
E |-0---5---5---------0---5---5---------0---5---5---------0---5---5--------------------|


        - [MATTHEW] x4

e |------------------------------------------------------------------------------------|
B |-5-------5-5------------------------------------------------------------------------|
G |-6---6---6-6--6---------------------------------------------------------------------|
D |-7---7---7-7----7-------------------------------------------------------------------|
A |------------------------------------------------------------------------------------|
E |------------------------------------------------------------------------------------|



[VERSE 1] - [CALEB]

    & | 1 & 2 & 3 & 4 & | 1 & 2 & 3 & 4 & | 1 & 2 & 3 & 4 & | 1 & 2 & 3 & 4 & |

        A                 A                 A                 A
e |------------------------------------------------------------------------------------
B |------------------------------------------------------------------------------------
G |-----6---6-------------6---6-------------6---6-------------6---6--------------------
D |-----7---7-------------7---7-------------7---7-------------7---7--------------------
A |-----7---7-------------7---7-------------7---7-------------7---7--------------------
E |-----5---5-------------5---5-------------5---5-------------5---5--------------------

        A                 A                 A                 A
   ------------------------------------------------------------------------------------|
   ------------------------------------------------------------------------------------|
   -----6---6-------------6---6-------------6---6-------------6---6--------------------|
   -----7---7-------------7---7-------------7---7-------------7---7--------------------|
   -----7---7-------------7---7-------------7---7-------------7---7--------------------|
   -----5---5-------------5---5-------------5---5-------------5---5--------------------|


          - [MATTHEW] (Nothing is played)



[CHORUS] - [CALEB]

    & | 1 & 2 & 3 & 4 & | 1 & 2 & 3 & 4 & | 1 & 2 & 3 & 4 & | 1 & 2 & 3 & 4 & |

        E                 D                 A                 A
e |-----0---0-------------10--10------------5---5-------------5---5--------------------
B |-----0---0-------------10--10------------5---5-------------5---5--------------------
G |-----1---1-------------11--11------------6---6-------------6---6--------------------
D |-----2---2-------------12--12------------7---7-------------7---7--------------------
A |-----2---2-------------12--12------------7---7-------------7---7--------------------
E |-----0---0-------------10--10------------5---5---------0---5---5--------------------

        E                 D                 A                 A
   -----0---0-------------10-10-------------5---5-------------5---5--------------------
   -----0---0-------------10-10-------------5---5-------------5---5--------------------
   -----1---1-------------11-11-------------6---6-------------6---6--------------------
   -----2---2-------------12-12-------------7---7-------------7---7--------------------
   -----2---2-------------12-12-------------7---7-------------7---7--------------------
   -----0---0-------------10-10-------------5---5---------0---5---5--------------------

        A                 A
   -----5---5-------------5---5--------------------------------------------------------|
   -----5---5-------------5---5--------------------------------------------------------|
   -----6---6-------------6---6--------------------------------------------------------|
   -----7---7-------------7---7--------------------------------------------------------|
   -----7---7-------------7---7--------------------------------------------------------|
   -0---5---5---------0---5---5--------------------------------------------------------|


         - [MATTHEW]

    & | 1 & 2 & 3 & 4 & | 1 & 2 & 3 & 4 & |

        E                 D                
e |------------------------------------------------------------------------------------
B |---------12------------10--10-------------------------------------------------------
G |---------13------------11--11-----------5-------5-5-------------5-------5-5---------
D |-0---14--14------------12--12-----------6---6---6-6--6----------6---6---6-6--6------
A |-----14--14------------12--12-----------7---7---7-7----7--------7---7---7-7---------
E |-----12--12------------10--10-------------------------------------------------------

        E                 D                      & | 1 & 2 & 3 & 4 & | 1 & 2 & 3 & 4 & |
e |--------------------------------------------------5---5-------------5---5-----------
B |---------12------------10--10---------------------5---5-------------5---5-----------
G |---------13------------11--11---------------------6---6-------------6---6-----------
D |-0---14--14------------12--12-----------------7---7---7---------7---7---7-----------
A |-----14--14------------12--12-----------------7---7---7---------7---7---7-----------
E |-----12--12------------10--10-----------------0---5---5---------0---5---5-----------

        A                 A
   -----5---5-------------5---5--------------------------------------------------------|
   -----5---5-------------5---5--------------------------------------------------------|
   -----6---6-------------6---6--------------------------------------------------------|
   -7---7---7---------7---7---7--------------------------------------------------------|
   -7---7---7---------7---7---7--------------------------------------------------------|
   -0---5---5---------0---5---5--------------------------------------------------------|



[VERSE 2] - [CALEB]

    & | 1 & 2 & 3 & 4 & | 1 & 2 & 3 & 4 & | 1 & 2 & 3 & 4 & | 1 & 2 & 3 & 4 & |

        A                 A                 A                 A
e |------------------------------------------------------------------------------------
B |------------------------------------------------------------------------------------
G |-----6---6-------------6---6-------------6---6-------------6---6--------------------
D |-----7---7-------------7---7-------------7---7-------------7---7--------------------
A |-----7---7-------------7---7-------------7---7-------------7---7--------------------
E |-----5---5-------------5---5-------------5---5-------------5---5--------------------

        A                 A                 A                 A
   ------------------------------------------------------------------------------------|
   ------------------------------------------------------------------------------------|
   -----6---6-------------6---6-------------6---6-------------6---6--------------------|
   -----7---7-------------7---7-------------7---7-------------7---7--------------------|
   -----7---7-------------7---7-------------7---7-------------7---7--------------------|
   -----5---5-------------5---5-------------5---5-------------5---5--------------------|


        - [MATTHEW] x8
[ Tab from: http://www.guitartabs.cc/tabs/k/kings_of_leon/where_nobody_knows_tab.html ]
e |------------------------------------------------------------------------------------|
B |-5-------5-5------------------------------------------------------------------------|
G |-6---6---6-6--6---------------------------------------------------------------------|
D |-7---7---7-7----7-------------------------------------------------------------------|
A |------------------------------------------------------------------------------------|
E |------------------------------------------------------------------------------------|



[CHORUS] - [CALEB]

    & | 1 & 2 & 3 & 4 & | 1 & 2 & 3 & 4 & | 1 & 2 & 3 & 4 & | 1 & 2 & 3 & 4 & |

        E                 D                 A                 A
e |-----0---0-------------10--10------------5---5-------------5---5--------------------
B |-----0---0-------------10--10------------5---5-------------5---5--------------------
G |-----1---1-------------11--11------------6---6-------------6---6--------------------
D |-----2---2-------------12--12------------7---7-------------7---7--------------------
A |-----2---2-------------12--12------------7---7-------------7---7--------------------
E |-----0---0-------------10--10------------5---5---------0---5---5--------------------

        E                 D                 A                 A
   -----0---0-------------10-10-------------5---5-------------5---5--------------------
   -----0---0-------------10-10-------------5---5-------------5---5--------------------
   -----1---1-------------11-11-------------6---6-------------6---6--------------------
   -----2---2-------------12-12-------------7---7-------------7---7--------------------
   -----2---2-------------12-12-------------7---7-------------7---7--------------------
   -----0---0-------------10-10-------------5---5---------0---5---5--------------------

        A                 A
   -----5---5-------------5---5--------------------------------------------------------|
   -----5---5-------------5---5--------------------------------------------------------|
   -----6---6-------------6---6--------------------------------------------------------|
   -----7---7-------------7---7--------------------------------------------------------|
   -----7---7-------------7---7--------------------------------------------------------|
   -0---5---5---------0---5---5--------------------------------------------------------|


         - [MATTHEW]

    & | 1 & 2 & 3 & 4 & | 1 & 2 & 3 & 4 & |

        E                 D                
e |------------------------------------------------------------------------------------
B |---------12------------10--10-------------------------------------------------------
G |---------13------------11--11-----------5-------5-5-------------5-------5-5---------
D |-0---14--14------------12--12-----------6---6---6-6--6----------6---6---6-6--6------
A |-----14--14------------12--12-----------7---7---7-7----7--------7---7---7-7---------
E |-----12--12------------10--10-------------------------------------------------------

        E                 D                      & | 1 & 2 & 3 & 4 & | 1 & 2 & 3 & 4 & |
e |--------------------------------------------------5---5-------------5---5-----------
B |---------12------------10--10---------------------5---5-------------5---5-----------
G |---------13------------11--11---------------------6---6-------------6---6-----------
D |-0---14--14------------12--12-----------------7---7---7---------7---7---7-----------
A |-----14--14------------12--12-----------------7---7---7---------7---7---7-----------
E |-----12--12------------10--10-----------------0---5---5---------0---5---5-----------

        A                 A
   -----5---5-------------5---5--------------------------------------------------------|
   -----5---5-------------5---5--------------------------------------------------------|
   -----6---6-------------6---6--------------------------------------------------------|
   -7---7---7---------7---7---7--------------------------------------------------------|
   -7---7---7---------7---7---7--------------------------------------------------------|
   -0---5---5---------0---5---5--------------------------------------------------------|


[SOLO] - [CALEB]

    & | 1 & 2 & 3 & 4 & | 1 & 2 & 3 & 4 & | 1 & 2 & 3 & 4 & | 1 & 2 & 3 & 4 & |

        A                 A                 A                 A
e |-----5---5-------------5---5-------------5---5-------------5---5--------------------
B |-----5---5-------------5---5-------------5---5-------------5---5--------------------
G |-----6---6-------------6---6-------------6---6-------------6---6--------------------
D |-----7---7-------------7---7-------------7---7-------------7---7--------------------
A |-----7---7-------------7---7-------------7---7-------------7---7--------------------
E |-----5---5---------0---5---5---------0---5---5---------0---5---5--------------------

        E                 D                 A                 A
   -----0---0-------------10-10-------10----5---5-------------5---5--------------------
   -----0---0-------------10-10-------10----5---5-------------5---5--------------------
   -----1---1-------------11-11-------11----6---6-------------6---6--------------------
   -----2---2-------------12-12-------12----7---7-------------7---7--------------------
   -----2---2-------------12-12-------------7---7-------------7---7--------------------
   -----0---0-------------10-10-------------5---5---------0---5---5--------------------


        A                 A
   -----5---5-------------5---5--------------------------------------------------------|
   -----5---5-------------5---5--------------------------------------------------------|
   -----6---6-------------6---6--------------------------------------------------------|
   -----7---7-------------7---7--------------------------------------------------------|
   -----7---7-------------7---7--------------------------------------------------------|
   -----5---5---------0---5---5--------------------------------------------------------|


       - [MATTHEW]

e |------------------------------------------------------------------------------------
B |--------------------------------14-------141414-151515-14--1414-15-14--15-14--------
G |-14-14-14-14----14--14-14-14----14-------141414-141414-14--1414-14-----14-----------
D |-14-14-14-14----14--14-14-14----14-------141414-141414-14--1414---------------------
A |--0--0--0--0-----0---0--0--0-----0--------0-0-0--0-0-0--0---------------------------
E |------------------------------------------------------------------------------------

   ------------------------------------------------------------------------------------
   ---------10-10-10---7--7--7-7--7--7-------------------------------------------------
   -7/9-9-9--9--9--9---7--7--7-7--7--7--7---6--------6---6-----------------------------
   --------------------7--7--7-7--7--7---7--7--------7---7-----------------------------
   ---------------------------------------0-7--------7---7-----------------------------
   -----------------------------------------5-----0--5---5-----------------------------

   ------------------------------------------------------------------------------------|
   --7^-----------10sb(13)-------------------------------------------------------------|
   --------9^--------------------------------------------------------------------------|
   ------------------------------------------------------------------------------------|
   ------------------------------------------------------------------------------------|
   ------------------------------------------------------------------------------------|



[OUTRO] - [CALEB] (Matthew stays silent 'til *)

    & | 1 & 2 & 3 & 4 & | 1 & 2 & 3 & 4 & | 1 & 2 & 3 & 4 & | 1 & 2 & 3 & 4 & |

        A                 A                 A                 A
e |------------------------------------------------------------------------------------
B |------------------------------------------------------------------------------------
G |------------------------------------------------------------------------------------
D |-----7-----------------7-----------------7-----------------7------------------------
A |-----7-----------------7-----------------7-----------------7------------------------
E |-----5-----------------5-----------------5-----------------5------------------------

        *
        E                 A
   -----0---0-------------5---5--------------------------------------------------------|
   -----0---0-------------5---5--------------------------------------------------------|
   -----1---1-------------6---6---LET CHORD RING---------------------------------------|
   -----2---2-------------7---7--------------------------------------------------------|
   -----2---2-------------7---7--------------------------------------------------------|
   -----0---0-------------5---5--------------------------------------------------------|






****************************************************************************************
****************************************************************************************
****************************************************************************************
                                     PHEW!...AGAIN
                           THANK YOU FOR DOWNLOADING THIS FILE
****************************************************************************************
****************************************************************************************
****************************************************************************************
****************************************************************************************
*********************** THE VIROLAS ARE COMING TO STEAL YOUR MIND **********************
****************************************************************************************
****************************************************************************************
Comments