Kings Of Leon - Where Nobody Knows Chords & Tabs

 

Where Nobody Knows Chords & Tabs

Kings Of Leon Chords & Tabs

Version: 1 Type: Bass Tab 0 ratings
1 star 2 stars 3 stars 4 stars 5 stars
comments

Where Nobody Knows Bass Tab

   
Intro
G:----------------|
D:----------------|
A:----------------|
E:5555555555555555

Verse
G:--------------|
D:--------------|
A:-------7------|
E:5-5-5h7-  x12-| (I think)

Chorus
G:---------------------------------------|
D:---------------------------------------|
A:777777775555----5/7--------7---------7-|
E:-------------5/7----5-5-5h7---5-5-5h7--|

G:---------------------------------------|
D:---------------------------------------|
A:777777775555----5/7--------7---------7-|
E:-------------5/7----5-5-5h7---5-5-5h7--|

Verse
G:---------|
D:---------|
A:-------7-|
E:5-5-5h7--|  x 10
[ Tab from: http://www.guitartabs.cc/tabs/k/kings_of_leon/where_nobody_knows_btab.html ]
Chorus
G:---------------------------------------|
D:---------------------------------------|
A:777777775555----5/7--------7---------7-|
E:-------------5/7----5-5-5h7---5-5-5h7--|

G:---------------------------------------|
D:---------------------------------------|
A:777777775555----5/7--------7---------7-|
E:-------------5/7----5-5-5h7---5-5-5h7--|

Verse
G:-----------|
D:-----------|
A:-------7---|
E:5-5-5h7----|  x2

G:-----------|
D:-----------|
A:----5-4----|
E:5-5--------|   x4

G:--------------------|
D:--------------------|
A:777777775555----5/7-|
E:-------------5/7----|

G:-----------|
D:-----------|
A:----5-4----|
E:5-5--------|   x4

End
G:------------|
D:------------|
A:------------|
E:7-7--/12-12-|


Mmmm, i enjoyed doing that. What a great song. Please rate this tab, thanks. Enjoy, my 
rocking amigos!
Comments