Kings Of Leon - Velvet Snow Chords & Tabs

 

Velvet Snow Chords & Tabs

Kings Of Leon Chords & Tabs

Version: 1 Type: Tab 0 ratings
1 star 2 stars 3 stars 4 stars 5 stars
comments

Velvet Snow Tab

   
#----------------------------------PLEASE NOTE---------------------------------#
#This file is the author's own work and represents their interpretation of the #
#song. You may only use this file for private study, scholarship, or research. #
#------------------------------------------------------------------------------#

Group/Singer Name:      Kings Of Leon
Song:                   "Velvet Snow"
Additional Info:        Aha Shake Heartbreak - Track 11
Tuning:                 Standard - [EADGBe]
Tabbed By:              Dean Hill - Comments, Suggestions? the.scotsman@blueyonder.co.uk


[Chords Used]   C(8[10][10]988); F(133211); G(355433) + SEE TAB


[Intro]         | C               | C               | C               | F               |
                | G               | G               | C               | C    


***********************************
*KINGS OF LEON - VELVET SNOW - TAB*
***********************************



b  -  Bend
sb -  Slow Bend
() -  Bracketed numbers are the note you bend up to
h  -  Hammer On
p  -  Pull Off
r  -  Return
/  -  Slide Up
  -  Slide Down
d  -  Strum Down
u  -  Strum Up
PM -  Palm Mute
 -  Natural Harmonics
^  -  Vibrato






[INTRO] - [CALEB]

    C                                                        F          G
e |--8--8--8---8---8-8--8--8-8---8-----8-8--8--8-8---8-8-8-8-1-11--11---3--33---------
B |--8--8--8---8---8-8--8--8-8---8-----8-8--8--8-8---8-8-8-8-1-11--11---3--33---------
G |--9--9--9---9---9-9--9--9-9---9-----9-9--9--9-9---9-9-9-9-2-22--22---4--44---------
D |-10-10-10--10--1010-10-1010--10----1010-10-1010--10101010-3-33--33---5--55---------
A |-10-10-10--10--1010-10-1010--10----1010-10-1010--10101010-3-33--33---5--55---------
E |--8--8--8---8---8-8--8--8-8---8-----8-8--8--8-8---8-8-8-8-1-11--11---3--33---------

    G                     C
   -3-33--3-3-3-3--3-33---8--8-8--8---8---8-8--8---8-8--8---8--------------------------|
   -3-33--3-3-3-3--3-33---8--8-8--8---8---8-8--8---8-8--8---8--------------------------|
   -4-44--4-4-4-4--4-44---9--9-9--9---9---9-9--9---9-9--9---9--------------------------|
   -5-55--5-5-5-5--5-55--10-1010-10--10--1010-10--1010-10--10--------------------------|
   -5-55--5-5-5-5--5-55--10-1010-10--10--1010-10--1010-10--10--------------------------|
   -3-33--3-3-3-3--3-33---8--8-8--8---8---8-8--8---8-8--8---8--------------------------|


        - [MATTHEW] x8 (Take your time to learn this part as it's quite tricky at first.)
                       (Start slow and work your way up to it.)

e |----------------------|
B |-8-----------88-------|
G |---9-7--7-9--9999-8-9-|
D |----------------------|
A |----------------------|
E |----------------------|



[VERSE 1] - [CALEB]

 "...Walking like..."   "...Walking like..."   "...velvet snow..."   "...start in on..."

     C                      C                             F              G
e |--8----------------------8-----------------------------1--------------3-------------
B |--8----------------------8-----------------------------1--------------3-------------
G |--9----------------------9-----------------------------2--------------4-------------
D |-10---------------------10-----------------------------3--------------5-------------
A |-10---------------------10-----------------------------3--------------5-------------
E |--8----------------------8-----------------------------1--------------3-------------

 "...Walking like..."

     C
e |--8---------------------------------------------------------------------------------
B |--8---------------------------------------------------------------------------------
G |--9---------------------------------------------------------------------------------
D |-10---------------------------------------------------------------------------------
A |-10---------------------------------------------------------------------------------
E |--8---------------------------------------------------------------------------------


          - [MATTHEW]

"...Woah,"    "...Walking like..."

    G             C
e |------------------------------------------------------------------------------------|
B |------------------------------------------------------------------------------------|
G |------------------------------------------------------------------------------------|
D |------------------------------------------------------------------------------------|
A |------------------------------------------------------------------------------------|
E |-3-1-0---------8-8-8-8-8-8-8-8-8-8-8-8-8-8-8-8--------------------------------------|



[VERSE 2] - [CALEB]


 "...Glowing 'cause..."                 "...Glowing 'cause..."

     C
e |--8---------------------------------8-8-8----------------8-8--8-8-------------------
B |--8---------------------------------8-8-8----------------8-8--8-8-------------------
G |--9------------------9--9---9---9---9-9-9----------------9-9--9-9-------------------
D |-10-----------------10-10--10--10--101010---------------1010-1010-------------------
A |-10-----------------10-10--10--10--101010---------------1010-1010-------------------
E |--8------------------8--8---8---8---8-8-8----------------8-8--8-8-------------------

"...the floor..."  "...Dancing like.."   "...Glowing..."

        F              G                     C
   -----1--------------3---------------------8----------8--8---8-8-8--8-8--8--8-8--8-8-
   -----1--------------3---------------------8----------8--8---8-8-8--8-8--8--8-8--8-8-
   -----2--------------4---------------------9----------9--9---9-9-9--9-9--9--9-9--9-9-
   -----3--------------5--------------------10---------10-10--101010-1010-10-1010-1010-
   -----3--------------5--------------------10---------10-10--101010-1010-10-1010-1010-
   -----1--------------3---------------------8----------8--8---8-8-8--8-8--8--8-8--8-8-


          - [MATTHEW]

    C                                               F               G
e |------------------------------------------------------------------------------------
B |------------------------------------------------------------------------------------
G |------------------------------------------------------------------------------------
D |------------------------------------------------------------------------------------
A |------------------------------------------------------------------------------------
E |-8-8-8-8-8-8-8-8-8-8-8-8-8-8-8-8-8-8-8-8-8-8-8-8-1-1-1-1-1-1-1-1-3-3-3-3-3-3-3-3----

    G               C
e |------------------------------------------------------------------------------------|
B |------------------------------------------------------------------------------------|
G |------------------------------------------------------------------------------------|
D |------------------------------------------------------------------------------------|
A |------------------------------------------------------------------------------------|
E |-3-3-3-3-3-1-0---8-8-8-8-8-8-8-8-8-8-8-8-8-8-8-8------------------------------------|



[CHORUS] - [CALEB]

    C                                                        F          G
e |--8--8--8---8---8-8--8--8-8---8-----8-8--8--8-8---8-8-8-8-1-11--11---3--33----------
B |--8--8--8---8---8-8--8--8-8---8-----8-8--8--8-8---8-8-8-8-1-11--11---3--33----------
G |--9--9--9---9---9-9--9--9-9---9-----9-9--9--9-9---9-9-9-9-2-22--22---4--44----------
D |-10-10-10--10--1010-10-1010--10----1010-10-1010--10101010-3-33--33---5--55----------
A |-10-10-10--10--1010-10-1010--10----1010-10-1010--10101010-3-33--33---5--55----------
E |--8--8--8---8---8-8--8--8-8---8-----8-8--8--8-8---8-8-8-8-1-11--11---3--33----------

    G                     C
   -3-33--3-3-3-3--3-33---8--8-8--8---8---8-8--8---8-8--8---8--------------------------|
   -3-33--3-3-3-3--3-33---8--8-8--8---8---8-8--8---8-8--8---8--------------------------|
   -4-44--4-4-4-4--4-44---9--9-9--9---9---9-9--9---9-9--9---9--------------------------|
   -5-55--5-5-5-5--5-55--10-1010-10--10--1010-10--1010-10--10--------------------------|
   -5-55--5-5-5-5--5-55--10-1010-10--10--1010-10--1010-10--10--------------------------|
   -3-33--3-3-3-3--3-33---8--8-8--8---8---8-8--8---8-8--8---8--------------------------|


        - [MATTHEW] x8

e |----------------------|
B |-8-----------88-------|
G |---9-7--7-9--9999-8-9-|
D |----------------------|
A |----------------------|
E |----------------------|



[VERSE 3] - [CALEB]
[ Tab from: http://www.guitartabs.cc/tabs/k/kings_of_leon/velvet_snow_tab.html ]
  "...Death row..."     "...Death row..."             "...face..."   "...Showing off..."

     C                      C                             F              G
e |--8----------------------8-----------------------------1--------------3-------------
B |--8----------------------8-----------------------------1--------------3-------------
G |--9----------------------9-----------------------------2--------------4-------------
D |-10---------------------10-----------------------------3--------------5-------------
A |-10---------------------10-----------------------------3--------------5-------------
E |--8----------------------8-----------------------------1--------------3-------------

 "...Death row..."

     C
e |--8-------------8--8--8--8-8--------------------------------------------------------
B |--8-------------8--8--8--8-8--------------------------------------------------------
G |--9-------------9--9--9--9-9--------------------------------------------------------
D |-10------------10-10-10-1010--------------------------------------------------------
A |-10------------10-10-10-1010--------------------------------------------------------
E |--8-------------8--8--8--8-8--------------------------------------------------------


          - [MATTHEW]
PM------------------------------------------------¬
    C                                               F               G
e |------------------------------------------------------------------------------------
B |------------------------------------------------------------------------------------
G |------------------------------------------------------------------------------------
D |------------------------------------------------------------------------------------
A |------------------------------------------------------------------------------------
E |-8-8-8-8-8-8-8-8-8-8-8-8-8-8-8-8-8-8-8-8-8-8-8-8-1-1-1-1-1-1-1-1-3-3-3-3-3-3-3-3----

    G               C
e |------------------------------------------------------------------------------------|
B |------------------------------------------------------------------------------------|
G |------------------------------------------------------------------------------------|
D |------------------------------------------------------------------------------------|
A |------------------------------------------------------------------------------------|
E |-3-3-3-3-3-1-0---8-8-8-8-8-8-8-8-8-8-8-8-8-8-8-8------------------------------------|



[CHORUS] - [CALEB]

    C                                                        F          G
e |--8--8--8---8---8-8--8--8-8---8-----8-8--8--8-8---8-8-8-8-1-11--11---3--33---------
B |--8--8--8---8---8-8--8--8-8---8-----8-8--8--8-8---8-8-8-8-1-11--11---3--33---------
G |--9--9--9---9---9-9--9--9-9---9-----9-9--9--9-9---9-9-9-9-2-22--22---4--44---------
D |-10-10-10--10--1010-10-1010--10----1010-10-1010--10101010-3-33--33---5--55---------
A |-10-10-10--10--1010-10-1010--10----1010-10-1010--10101010-3-33--33---5--55---------
E |--8--8--8---8---8-8--8--8-8---8-----8-8--8--8-8---8-8-8-8-1-11--11---3--33---------

    G                     C
   -3-33--3-3-3-3--3-33---8--8-8--8---8---8-8--8---8-8--8---8--------------------------|
   -3-33--3-3-3-3--3-33---8--8-8--8---8---8-8--8---8-8--8---8--------------------------|
   -4-44--4-4-4-4--4-44---9--9-9--9---9---9-9--9---9-9--9---9--------------------------|
   -5-55--5-5-5-5--5-55--10-1010-10--10--1010-10--1010-10--10--------------------------|
   -5-55--5-5-5-5--5-55--10-1010-10--10--1010-10--1010-10--10--------------------------|
   -3-33--3-3-3-3--3-33---8--8-8--8---8---8-8--8---8-8--8---8--------------------------|


        - [MATTHEW] x8

e |----------------------|
B |-8-----------88-------|
G |---9-7--7-9--9999-8-9-|
D |----------------------|
A |----------------------|
E |----------------------|



[LINK] - [CALEB]

    C                                                        F          G
e |--8--8--8---8---8-8--8--8-8---8-----8-8--8--8-8---8-8-8-8-1-11--11---3--33---------
B |--8--8--8---8---8-8--8--8-8---8-----8-8--8--8-8---8-8-8-8-1-11--11---3--33---------
G |--9--9--9---9---9-9--9--9-9---9-----9-9--9--9-9---9-9-9-9-2-22--22---4--44---------
D |-10-10-10--10--1010-10-1010--10----1010-10-1010--10101010-3-33--33---5--55---------
A |-10-10-10--10--1010-10-1010--10----1010-10-1010--10101010-3-33--33---5--55---------
E |--8--8--8---8---8-8--8--8-8---8-----8-8--8--8-8---8-8-8-8-1-11--11---3--33---------

    G                     C
   -3-33--3-3-3-3--3-33---8--8-8--8---8---8-8--8---8-8--8---8--------------------------|
   -3-33--3-3-3-3--3-33---8--8-8--8---8---8-8--8---8-8--8---8--------------------------|
   -4-44--4-4-4-4--4-44---9--9-9--9---9---9-9--9---9-9--9---9--------------------------|
   -5-55--5-5-5-5--5-55--10-1010-10--10--1010-10--1010-10--10--------------------------|
   -5-55--5-5-5-5--5-55--10-1010-10--10--1010-10--1010-10--10--------------------------|
   -3-33--3-3-3-3--3-33---8--8-8--8---8---8-8--8---8-8--8---8--------------------------|


       - [MATTHEW]

e |------------------------------------------------------------------------------------
B |------------------------------------------------------------------------------------
G |-121212--101010---9-9-9--7--10---9---------121212--101010---9-9-9--12--5------------
D |-141414--121212--101010--9--12--10---------141414--121212--101010--14--7------------
A |------------------------------------------------------------------------------------
E |------------------------------------------------------------------------------------

   ------------------------------------------------------------------------------------|
   ------------------------------------------------------------------------------------|
   -101010---9-9-9--777--5-5---4--------------121212--101010---9-9-9--7/10---9---------|
   -121212--101010--999--7-7---5--------------141414--121212--101010--9/12--10---------|
   ------------------------------------------------------------------------------------|
   ------------------------------------------------------------------------------------|



[CHORUS] - [CALEB]

    C                                                        F          G
e |--8--8--8---8---8-8--8--8-8---8-----8-8--8--8-8---8-8-8-8-1-11--11---3--33---------
B |--8--8--8---8---8-8--8--8-8---8-----8-8--8--8-8---8-8-8-8-1-11--11---3--33---------
G |--9--9--9---9---9-9--9--9-9---9-----9-9--9--9-9---9-9-9-9-2-22--22---4--44---------
D |-10-10-10--10--1010-10-1010--10----1010-10-1010--10101010-3-33--33---5--55---------
A |-10-10-10--10--1010-10-1010--10----1010-10-1010--10101010-3-33--33---5--55---------
E |--8--8--8---8---8-8--8--8-8---8-----8-8--8--8-8---8-8-8-8-1-11--11---3--33---------

    G                     C
   -3-33--3-3-3-3--3-33---8--8-8--8---8---8-8--8---8-8--8---8--------------------------|
   -3-33--3-3-3-3--3-33---8--8-8--8---8---8-8--8---8-8--8---8--------------------------|
   -4-44--4-4-4-4--4-44---9--9-9--9---9---9-9--9---9-9--9---9--------------------------|
   -5-55--5-5-5-5--5-55--10-1010-10--10--1010-10--1010-10--10--------------------------|
   -5-55--5-5-5-5--5-55--10-1010-10--10--1010-10--1010-10--10--------------------------|
   -3-33--3-3-3-3--3-33---8--8-8--8---8---8-8--8---8-8--8---8--------------------------|


        - [MATTHEW] x8

e |----------------------|
B |-8-----------88-------|
G |---9-7--7-9--9999-8-9-|
D |----------------------|
A |----------------------|
E |----------------------|



[OUTRO] - [CALEB]

 "...Stoked that you..." "...some bad news," "Leave it up to..." "Out into the..."

     C                            F           G                   C
e |--8----------------------------1-----------3-------------------8--------------------|
B |--8----------------------------1-----------3-------------------8--------------------|
G |--9----------------------------2-----------4-------------------9--------------------|
D |-10----------------------------3-----------5------------------10--------------------|
A |-10----------------------------3-----------5------------------10--------------------|
E |--8----------------------------1-----------3-------------------8--------------------|


        - [MATTHEW] (Nothing played)






****************************************************************************************
****************************************************************************************
****************************************************************************************           
Comments