Kings Of Leon - Use Somebody Chords & Tabs

 

Kings Of Leon Chords & Tabs

Version: 4 Type: Tab 0 ratings
1 star 2 stars 3 stars 4 stars 5 stars
comments

Use Somebody Tab

   
-------------------------------------------------------------------------------
			     USE SOMEBODY - Kings of Leon
-------------------------------------------------------------------------------
Tabbed by: Rowley_rulz
Email: Rowley_rulz@hotmail.com

Intro:

C Em F x 2
Am C F x 2

Note: When playing the intro, I find it sounds better when holding off playing bottom e.

e|---------------------------------------------------------------------------|
B|---------------------------------------------------------------------------|
G|---------------------------------------------------------------------------|
D|---5---5---5---9---9---9---10---10---10---10---10---10------------------------/
A|---3---3---3---7---7---7---8----8----8----8----8----8------X2----------------|
E|---------------------------------------------------------------------------|
[ Tab from: http://www.guitartabs.cc/tabs/k/kings_of_leon/use_somebody_tab_ver_4.html ]
e|---------------------------------------------------------------------------|
B|---------------------------------------------------------------------------|
G|---------------------------------------------------------------------------|
D|---------------------------------------------------------------------------|
A|----7---7---7---10---10---10-----3---3---3---3---3---3---------------------|
E|----5---5---5---8----8----8/10---1---1---1---1---1---1----X2---------------|


Back to Intro Pattern - C, Em, F X2

Am, C, F X2


e|---------------------------------------------------------------------------|
B|---------------------------------------------------------------------------|
G|---------------------------------------------------------------------------|
D|---5---5---5---9---9---9---10---10---10---10---10---10------------------------/
A|---3---3---3---7---7---7---8----8----8----8----8----8------X2----------------|
E|---------------------------------------------------------------------------|

e|---------------------------------------------------------------------------|
B|---------------------------------------------------------------------------|
G|---------------------------------------------------------------------------|
D|---------------------------------------------------------------------------|
A|----7---7---7---10---10---10-----3---3---3---3---3---3---------------------|
E|----5---5---5---8----8----8/10---1---1---1---1---1---1----X2---------------|


Bridge: F#, A, E X2

That's a rough guess, obviously better tabs will be on here when the albums out!
Comments