Kings Of Leon - Trani Chords & Tabs

 

Trani Chords & Tabs

Kings Of Leon Chords & Tabs

Version: 1 Type: Tab 0 ratings
1 star 2 stars 3 stars 4 stars 5 stars
comments

Trani Tab

   
#----------------------------------PLEASE NOTE---------------------------------#
#This file is the author's own work and represents their interpretation of the #
#song. You may only use this file for private study, scholarship, or research. #
#------------------------------------------------------------------------------

Group/Singer Name:      Kings Of Leon
Song:                   "Trani"
Additional Info:        Youth & Young Manhood - Track 05
Tuning:                 Standard - [EADGBe]
Tabbed By:              Dean Hill - Comments, Suggestions? the.scotsman@blueyonder.co.uk


[Chords Used]   A(577655); E(022100); B(799877); C#m(9[11][11]999); G#(466544)


[Intro]         | 1 & 2 & |  | 1 & 2 & 3 & 4 & | 1 & 2 & 3 & 4 & |
                |---------|  |-----------------|-----------------|
                |       A |  | E             B | A       C#m B A |

                             | 1 & 2 & 3 & 4 & | 1 & 2 & 3 & 4 & |
                             |-----------------|-----------------|
                             | E             B | A       C#m B A |



                  **********************************
                  *KINGS OF LEON - TRANI LEAD PARTS*
                  **********************************



b  -  Bend
() -  Bracketed numbers are the note you bend up to
h  -  Hammer On
p  -  Pull Off
r  -  Return
/  -  Slide Up
  -  Slide Down
d  -  Strum Down
u  -  Strum Up
PM -  Palm Mute
NH -  Natural Harmonics
^  -  Vibrato





[INTRO] x8
e -------0-------
B -9b(10)-(10)r9-
G ---------------
D ---------------
A ---------------
E ---------------



[VERSE 1] - NOTHING PLAYED



[BRIDGE] X2
PM----------------------|
e ------------------------0-0-----0--------0----------------------------
B ---------------7---7--------------------------9b(10)---9--------------
G -6-9-6-6/9-9-9---9---9------6h9---9--6/9---9--------------------------
D ----------------------------------------------------------------------
A ----------------------------------------------------------------------
E ----------------------------------------------------------------------



[CHORUS]
PM----------------------|
e ------------------------0-0-----0--------0----------------------------
B ---------------7---7--------------------------9b(10)---9--------------
G -6-9-6-6/9-9-9---9---9------6h9---9--6/9---9--------------------------
D ----------------------------------------------------------------------
A ----------------------------------------------------------------------
E ----------------------------------------------------------------------



[LINK] - ACOUSTIC PLAYS SAME AS RHYTHM



[VERSE 2] - NOTHING PLAYED



[BRIDGE] X2
PM----------------------|
e ------------------------0-0-----0--------0----------------------------
B ---------------7---7--------------------------9b(10)---9--------------
G -6-9-6-6/9-9-9---9---9------6h9---9--6/9---9--------------------------
D ----------------------------------------------------------------------
A ----------------------------------------------------------------------
E ----------------------------------------------------------------------


[ Tab from: http://www.guitartabs.cc/tabs/k/kings_of_leon/trani_tab.html ]
[CHORUS]
PM----------------------|
e ------------------------0-0-----0--------0----------------------------
B ---------------7---7--------------------------9b(10)---9--------------
G -6-9-6-6/9-9-9---9---9------6h9---9--6/9---9--------------------------
D ----------------------------------------------------------------------
A ----------------------------------------------------------------------
E ----------------------------------------------------------------------



[MIDDLE 8] - NOTHING PLAYED



[SOLO]
e ----------------------------------------------------------------------
B ---------8------------------------------------------------------------
G -6/9-9-9---9-9p7-------8b(9)-9-8b(9)--9-------------------------------
D ----------------9-7b(8)----------------------6-9----------------------
A -------------------------------------------7-----97-------7-----------
E ----------------------------------------/9---------9--7-9---9---------

  ----------------------------------------------------------------------
  ----------------------------------------------------------------------
  ----------------------------------------------------------------------
  -8b(9)(9)(9)(9)(9)(9)(9)(9)(9)(9)pr7----------------------------------
  ------------------------------------10-7-10---------------------------
  ----------------------------------------------------------------------

  ----------------------------------------------------------------------
  ----------------------------------------------------------------------
  ----------------------------------------------------------------------
  -8b(9)(9)(9)(9)(9)(9)(9)(9)(9)(9)pr7----------------------------------
  ------------------------------------10-7-10---------------------------
  ----------------------------------------------------------------------

  -------9-------9-8b(9)-9-12b(14)(14)r12-9---9---9/12-12-12----154b(17)-
  -7b(9)---7b(9)---------------------------12--12------------15---------
  ----------------------------------------------------------------------
  ----------------------------------------------------------------------
  ----------------------------------------------------------------------
  ----------------------------------------------------------------------
  
  -15b(17)-15b(17)-15b(17)r15-12--------12------------------------------
  -------------------------------15b(17)---15-12----12------------------
  -----------------------------------------------14----14-12------------
  ----------------------------------------------------------------------
  ----------------------------------------------------------------------
  ----------------------------------------------------------------------
                                [16 TIMES----------------------]
  ----------------------------------------------------------------------
  -12/14-141414141414/12--12-12-15151515151515151515151515151515--------
  ----------------------------------------------------------------------
  ----------------------------------------------------------------------
  ----------------------------------------------------------------------
  ----------------------------------------------------------------------


[MIDDLE 8] - NOTHING PLAYED


[BRIDGE] - ACOUSTIC PLAYS STATED CHORDS


[OUTRO] @ [04:12] - [REPEAT TO END OF SONG AND FINISH ON 1 STRUM OF]--¬
  ---------------------------                                    ----------
  -101010101010101010-9--9-9-                                    -----9----
  --9-9-9-9-9-9-9-9-9-9--9-9-                                    -----9----
  --9-9-9-9-9-9-9-9-9-9--9-9-                                    -----9----
  ---------------------------                                    ----------
  ---------------------------                                    ----------






****************************************************************************************
****************************************************************************************
****************************************************************************************
Comments