Kings Of Leon - Taper Jean Girl Chords & Tabs

 

Taper Jean Girl Chords & Tabs

Kings Of Leon Chords & Tabs

Version: 2 Type: Tab 0 ratings
1 star 2 stars 3 stars 4 stars 5 stars
comments

Taper Jean Girl Tab

   
---------------------------------------------------------------------------
Song:Taper Jean Girl
Artist:Kings of Leon
Album:A-Ha Shake Heartbreak
Tabber:Alexthebeatle, FROM SPAIN
---------------------------------------------------------------------------

 I've been in the KINGS OF LEON concert in Madrid,
 it was fucking good, I was totally out of control!.
 I'm working in RAZZ(I still have to work the solo),
 and I have the last part of SLOW NIGHTS SO LONG, but
 everything must wait.
 This is what I saw of Taper Jean Girl:

-------------------------------------------------------------------------

-INTRO:
-before the guitar sounds,there's a little bass riff:
|-------------------------------------------------------------------------|
|-------------------------------------------------------------------------|
|-------------------------------------------------------------------------|
|--0--0-0---0--0-0---0--0-0---0--0-0---0--0-0---0--0-0---0--0-0---0--0-0--|

-then the two guitars:
GUITAR 1: CALEB:
   E
|--------------------------------------------|
|--------------------------------------------|
|--------------------------------------------|
|--2--2--2--2--2--2----2--2--2--2--2--2------|
|--2--2--2--2--2--2----2--2--2--2--2--2------|
|--0--2--4--4--4--4----0--2--4--4--4--4------|

   A
|--------------------------------------------|
|--------------------------------------------|
|--------------------------------------------|
|--7--7--7--7--7--7----7--7--7--7--7--7------|
|--7--7--7--7--7--7----7--7--7--7--7--7------|
|--9--7--9--9--9--9----9--7--9--9--9--9------|

   E
|--------------------------------------------|
|--------------------------------------------|
|--------------------------------------------|
|--2--2--2--2--2--2----2--2--2--2--2--2------|
|--2--2--2--2--2--2----2--2--2--2--2--2------|
|--0--2--4--4--4--4----0--2--4--4--4--4------|

   A
|--------------------------------------------|
|--------------------------------------------|
|--------------------------------------------|
|--7--7--7--7--7--7----7--7--7--7--7--7------|
|--7--7--7--7--7--7----7--7--7--7--7--7------|
|--9--7--9--9--9--9----9--7--9--9--9--9------|


GUITAR 2: MATTHEW: all trough the intro he plays this little thing:

|---16--16-16---16--16-16---16--16-16---16--16-16----|
|---17--17-17---17--17-17---17--17-17---17--17-17----|
|----------------------------------------------------|
|----------------------------------------------------|
|----------------------------------------------------|
|----------------------------------------------------|


VERSE: Caleb plays the riff of the intro as he sings,
and Matthew just enters a few times to play some little
things that I haven't tabbed in the same key as Caleb:

         "A-Ha              Shake"
|--------------------------------------------|
|--------------------------------------------|
|--------------------------------------------|
|--2--2--2--2--2--2----2--2--2--2--2--2------|
|--2--2--2--2--2--2----2--2--2--2--2--2------|
|--0--2--4--4--4--4----0--2--4--4--4--4------|

         "Taper Jean Girl with a motel face"
|--------------------------------------------|
|--------------------------------------------|
|--------------------------------------------|
|--7--7--7--7--7--7----7--7--7--7--7--7------|
|--7--7--7--7--7--7----7--7--7--7--7--7------|
|--9--7--9--9--9--9----9--7--9--9--9--9------|

 ETC ETC ETC, just the same riff changing the lyrics

-CHORUS:

GUITAR 1:       "Cunts watch their bodies"
|--------------------------------------------|
|--------------------------------------------|
|--------------------------------------------|
|---9-9-9--7---------------------------------|
|---7-7-7--5---------------------------------|
|---0-0-0--0---------------------------------|

GUITAR 2:
|--------------------------------------------|
|--------------------------------------------|
|---9-9-9--7---------------------------------|
|---9-9-9--7---------------------------------|
|--------------------------------------------|
|--------------------------------------------|

GUITAR 1:        "No room for make up"
|--------------------------------------------|
|--------------------------------------------|
|--------------------------------------------|
|---9-9-9--7---------------------------------|
|---7-7-7--5---------------------------------|
|---0-0-0--0---------------------------------|
[ Tab from: http://www.guitartabs.cc/tabs/k/kings_of_leon/taper_jean_girl_tab_ver_2.html ]
GUITAR 2:
|--------------------------------------------|
|--------------------------------------------|
|---9-9-9--7---------------------------------|
|---9-9-9--7---------------------------------|
|--------------------------------------------|
|--------------------------------------------|

GUITAR 1:        "I think he's tasted"
|--------------------------------------------|
|--------------------------------------------|
|--------------------------------------------|
|---9-9-9--7---------------------------------|
|---7-7-7--5---------------------------------|
|---0-0-0--0---------------------------------|

GUITAR 2:
|--------------------------------------------|
|--------------------------------------------|
|---9-9-9--7---------------------------------|
|---9-9-9--7---------------------------------|
|--------------------------------------------|
|--------------------------------------------|

GUITAR 1:        "Tasted the watched"
|--------------------------------------------|
|--------------------------------------------|
|--------------------------------------------|
|---9-9-9--7---------------------------------|
|---7-7-7--5---------------------------------|
|---0-0-0--0---------------------------------|

GUITAR 2:
|--------------------------------------------|
|--------------------------------------------|
|---9-9-9--7---------------------------------|
|---9-9-9--7---------------------------------|
|--------------------------------------------|
|--------------------------------------------|


-AGAIN the intro with both guitars. Don't forget Matthew's little thing
-VERSE 2: The same as verse 1 but with different lyrics
-CHORUS 2: The same as chorus 1, and then:

-SOLO: Matthew plays the solo over Caleb, who keeps playing
the riff of the intro:

|--12--9--------------12--9------------------|
|---------12--9--------------12--9-----------|
|----------------11-----------------11-------|
|--------------------------------------------|
|--------------------------------------------|
|--------------------------------------------|

|--12--9--------------12--9------------------|
|---------12--9--------------12--9-----------|
|-----------------------------------11-------|
|--------------------------------------------|
|--------------------------------------------|
|--------------------------------------------|

|--12--9--------------12--9------------------|
|---------12--9--------------12--9-----------|
|----------------11-----------------11-------|
|--------------------------------------------|
|--------------------------------------------|
|--------------------------------------------|

|--12--9--------------12--9------------------|
|---------12--9--------------12--9-----------|
|-----------------------------------11-------|
|--------------------------------------------|
|--------------------------------------------|
|--------------------------------------------|

-VERSE 3: Caleb still plays the intro riff as Matthew
keeps playing the solo
-CHORUS 3: They both play the same as in chorus 1


-BRIDGE: Caleb and Matthew at the same time:
|---------------------------------------------------------------|
|---------------------------------------------------------------|
|---9--9--7--7---9--9--9--7--7---9--9--7--7---9--9--9--7--7-----|
|---9--9--7--7---9--9--9--7--7---9--9--5--5---9--9--9--7--7-----|
|---7--7--5--5---7--7--7--5--5---7--7--5--5---7--7--7--5--5-----|
|---------------------------------------------------------------|

|---------------------------------------------------------------|
|---------------------------------------------------------------|
|---9--9--7--7---9--9--9--7--7---9--9--7--7---9--9--9--7--7-----|
|---9--9--7--7---9--9--9--7--7---9--9--5--5---9--9--9--7--7-----|
|---7--7--5--5---7--7--7--5--5---7--7--5--5---7--7--7--5--5-----|
|---------------------------------------------------------------|

 "I got a shake shake shake............"
|---------------------------------------------------------------|
|---------------------------------------------------------------|
|---9--9--7--7---9--9--9--7--7---9--9--7--7---9--9--9--7--7-----|
|---9--9--7--7---9--9--9--7--7---9--9--5--5---9--9--9--7--7-----|
|---7--7--5--5---7--7--7--5--5---7--7--5--5---7--7--7--5--5-----|
|---------------------------------------------------------------|

 "I got people people people............"
|---------------------------------------------------------------|
|---------------------------------------------------------------|
|---9--9--7--7---9--9--9--7--7---9--9--7--7---9--9--9--7--7-----|
|---9--9--7--7---9--9--9--7--7---9--9--5--5---9--9--9--7--7-----|
|---7--7--5--5---7--7--7--5--5---7--7--5--5---7--7--7--5--5-----|
|---------------------------------------------------------------|


--------------------------------------------------------------------------

 "EATING, DRINKING, FUCKING AND SUCKING:
 IS THIS IT? IS THIS WHAT IT'S ALL ABOUT?"
 -Toni Montana
Comments