Kings Of Leon - Taper Jean Girl Chords & Tabs

 

Taper Jean Girl Chords & Tabs

Kings Of Leon Chords & Tabs

Version: 1 Type: Tab 0 ratings
1 star 2 stars 3 stars 4 stars 5 stars
comments

Taper Jean Girl Tab

   
***************************************
*KINGS OF LEON - TAPER JEAN GIRL - TAB*
***************************************
#----------------------------------PLEASE NOTE---------------------------------#
#This file is the author's own work and represents their interpretation of the #
#song. You may only use this file for private study, scholarship, or research. #
#------------------------------------------------------------------------------#
Group/Singer Name:      Kings Of Leon
Song:                   "Taper Jean Girl"
Additional Info:        Aha Shake Heartbreak - Track 03
Tuning:                 Standard - [EADGBe]
Tabbed By:              Dean Hill - Comments, Suggestions? the.scotsman@blueyonder.co.uk

b  -  Bend
sb -  Slow Bend
() -  Bracketed numbers are the note you bend up to
h  -  Hammer On
p  -  Pull Off
r  -  Return
/  -  Slide Up
  -  Slide Down
d  -  Strum Down
u  -  Strum Up
PM -  Palm Mute
 -  Natural Harmonics
^  -  Vibrato






[INTRO] - [CALEB] @ 00:15


e |-16--1616--16--161616-|           |-16-|
B |-17--1717--17--171717-|           |-17-|
G |-16--1616--16--161616-|           |-16-|
D |----------------------|           |----|
A |--PLAY THIS PART x8---| THEN PLAY |----|
E |----------------------|           |----|


        - [MATHEW] @ 00:15

e |------------------------------------------------------------------------------------
B |------------------------------------------------------------------------------------
G |------------------------------------------------------------------------------------
D |------------------------------------------------------------------------------------
A |-7----9---11---111111-11--7----9---11---111111-11-----------------------------------
E |-0--0-0-0--0----0-0-0--0--0--0-0-0--0----0-0-0--0-----------------------------------

   ------------------------------------------------------------------------------------
   ------------------------------------------------------------------------------------
   ------------------------------------------------------------------------------------
   -11---9---11---111111-11--11---9---11---111111-11-----------------------------------
   --0-0-0-0--0----0-0-0--0---0-0-0-0--0----0-0-0--0-----------------------------------
   ------------------------------------------------------------------------------------

   ------------------------------------------------------------------------------------
   ------------------------------------------------------------------------------------
   ------------------------------------------------------------------------------------
   ------------------------------------------------------------------------------------
   -7----9---11---111111-11--7----9---11---111111-11-----------------------------------
   -0--0-0-0--0----0-0-0--0--0--0-0-0--0----0-0-0--0-----------------------------------

   ------------------------------------------------------------------------------------|
   ------------------------------------------------------------------------------------|
   ------------------------------------------------------------------------------------|
   -11---9---11---111111-11--11---9---11---111111-11-----------------------------------|
   --0-0-0-0--0----0-0-0--0---0-0-0-0--0----0-0-0--0-----------------------------------|
   ------------------------------------------------------------------------------------|



[VERSE 1] - [CALEB]

...with a motel face,                   ...in a secret place,
e |-----------------16--------------------------------------16--1616--16--161616-------
B |-----------------17--------------------------------------17--1717--17--171717-------
G |-----------------16--------------------------------------16--1616--16--161616-------
D |------------------------------------------------------------------------------------
A |------------------------------------------------------------------------------------
E |------------------------------------------------------------------------------------

   -16--1616--16--161616-16--1616--16--161616-16--1616--16--1616-----------------------|
   -17--1717--17--171717-17--1717--17--171717-17--1717--17--1717-----------------------|
   -16--1616--16--161616-16--1616--16--161616-16--1616--16--1616-----------------------|
   ------------------------------------------------------------------------------------|
   ------------------------------------------------------------------------------------|
   ------------------------------------------------------------------------------------|


        - [MATHEW]

e |------------------------------------------------------------------------------------
B |------------------------------------------------------------------------------------
G |------------------------------------------------------------------------------------
D |------------------------------------------------------------------------------------
A |-7----9---11---111111-11--7----9---11---111111-11-----------------------------------
E |-0--0-0-0--0----0-0-0--0--0--0-0-0--0----0-0-0--0-----------------------------------

   ------------------------------------------------------------------------------------
   ------------------------------------------------------------------------------------
   ------------------------------------------------------------------------------------
   -11---9---11---111111-11--11---9---11---111111-11-----------------------------------
   --0-0-0-0--0----0-0-0--0---0-0-0-0--0----0-0-0--0-----------------------------------
   ------------------------------------------------------------------------------------

   ------------------------------------------------------------------------------------
   ------------------------------------------------------------------------------------
   ------------------------------------------------------------------------------------
   ------------------------------------------------------------------------------------
   -7----9---11---111111-11--7----9---11---111111-11-----------------------------------
   -0--0-0-0--0----0-0-0--0--0--0-0-0--0----0-0-0--0-----------------------------------

   ------------------------------------------------------------------------------------
   ------------------------------------------------------------------------------------
   ------------------------------------------------------------------------------------
   -11---9---11---111111-11--11---9---11---111111-11-----------------------------------
   --0-0-0-0--0----0-0-0--0---0-0-0-0--0----0-0-0--0-----------------------------------
   ------------------------------------------------------------------------------------

   ------------------------------------------------------------------------------------
   ------------------------------------------------------------------------------------
   ------------------------------------------------------------------------------------
   ------------------------------------------------------------------------------------
   -7----9---11---111111-11--7----9---12---111111-11-----------------------------------
   -0--0-0-0--0----0-0-0--0--0--0-0-0--0----0-0-0--0-----------------------------------

   ------------------------------------------------------------------------------------|
   ------------------------------------------------------------------------------------|
   ------------------------------------------------------------------------------------|
   -11---9---11---111111-11---9h11-9h11-9----------------------------------------------|
   --0-0-0-0--0----0-0-0--0---0----0----0----------------------------------------------|
   ------------------------------------------------------------------------------------|



[BRIDGE] - [CALEB DOESN'T PLAY]

         - [MATTHEW]

e |------------------------------------------------------------------------------------|
B |------------------------------------------------------------------------------------|
G |------------------------------------------------------------------------------------|
D |-9-9-99-7---------------9-9-99-7----------------9-9-99-7-------------------9-9-99-7-|
A |-7-7-77-5---------------7-7-77-5----------------7-7-77-5-------------------7-7-77-5-|
E |-0-0-00-0---------------0-0-00-0----------------0-0-00-0-------------------0-0-00-0-|
           ^
LET THIS   |
RING EACH  |
TIME-------|



[LINK] - [CALEB] @ 01:09


e |-16--1616--16--161616-|           |-16----------|
B |-17--1717--17--171717-|           |-17-LET RING-|
G |-16--1616--16--161616-|           |-16----------|
D |----------------------|           |-------------|
A |--PLAY THIS PART x4---| THEN PLAY |-------------|
E |----------------------|           |-------------|


        - [MATHEW] @ 01:09

e |------------------------------------------------------------------------------------
B |------------------------------------------------------------------------------------
G |------------------------------------------------------------------------------------
D |------------------------------------------------------------------------------------
A |-7----9---11---111111-11--7----9---11---111111-11-----------------------------------
E |-0--0-0-0--0----0-0-0--0--0--0-0-0--0----0-0-0--0-----------------------------------

   ------------------------------------------------------------------------------------|
   ------------------------------------------------------------------------------------|
   ------------------------------------------------------------------------------------|
   -11---9---11---111111-11--11---9---11---111111-11-----------------------------------|
   --0-0-0-0--0----0-0-0--0---0-0-0-0--0----0-0-0--0-----------------------------------|
   ------------------------------------------------------------------------------------|



[VERSE 2] - [CALEB]

...Har-hart, brea-eak,                  ...like the seventh grade,
e |-----------------16------------------------------------------16---------------------
B |-----------------17------------------------------------------17---------------------
G |-----------------16------------------------------------------16---------------------
D |------------------------------------------------------------------------------------
A |------------------------------------------------------------------------------------
E |------------------------------------------------------------------------------------

...Har-hart, brea-eak,                  ...with a winters chafe,
e |-----------------16----------------------------------------16--1616--16--161616-----
B |-----------------17----------------------------------------17--1717--17--171717-----
G |-----------------16----------------------------------------16--1616--16--161616-----
D |------------------------------------------------------------------------------------
A |------------------------------------------------------------------------------------
E |------------------------------------------------------------------------------------
[ Tab from: http://www.guitartabs.cc/tabs/k/kings_of_leon/taper_jean_girl_tab.html ]
   -16--1616--16--161616-16--1616--16--161616-16--1616--16--1616-----------------------|
   -17--1717--17--171717-17--1717--17--171717-17--1717--17--1717-----------------------|
   -16--1616--16--161616-16--1616--16--161616-16--1616--16--1616-----------------------|
   ------------------------------------------------------------------------------------|
   ------------------------------------------------------------------------------------|
   ------------------------------------------------------------------------------------|


        - [MATHEW]

e |------------------------------------------------------------------------------------
B |------------------------------------------------------------------------------------
G |------------------------------------------------------------------------------------
D |------------------------------------------------------------------------------------
A |-7----9---11---111111-11--7----9---11---111111-11-----------------------------------
E |-0--0-0-0--0----0-0-0--0--0--0-0-0--0----0-0-0--0-----------------------------------

   ------------------------------------------------------------------------------------
   ------------------------------------------------------------------------------------
   ------------------------------------------------------------------------------------
   -11---9---11---111111-11--11---9---11---111111-11-----------------------------------
   --0-0-0-0--0----0-0-0--0---0-0-0-0--0----0-0-0--0-----------------------------------
   ------------------------------------------------------------------------------------

   ------------------------------------------------------------------------------------
   ------------------------------------------------------------------------------------
   ------------------------------------------------------------------------------------
   ------------------------------------------------------------------------------------
   -7----9---11---111111-11--7----9---11---111111-11-----------------------------------
   -0--0-0-0--0----0-0-0--0--0--0-0-0--0----0-0-0--0-----------------------------------

   ------------------------------------------------------------------------------------
   ------------------------------------------------------------------------------------
   ------------------------------------------------------------------------------------
   -11---9---11---111111-11--11---9---11---111111-11-----------------------------------
   --0-0-0-0--0----0-0-0--0---0-0-0-0--0----0-0-0--0-----------------------------------
   ------------------------------------------------------------------------------------

   ------------------------------------------------------------------------------------
   ------------------------------------------------------------------------------------
   ------------------------------------------------------------------------------------
   ------------------------------------------------------------------------------------
   -7----9---11---111111-11--7----9---12---111111-11-----------------------------------
   -0--0-0-0--0----0-0-0--0--0--0-0-0--0----0-0-0--0-----------------------------------

   ------------------------------------------------------------------------------------|
   ------------------------------------------------------------------------------------|
   ------------------------------------------------------------------------------------|
   -11---9---11---111111-11---9h11-9h11-9----------------------------------------------|
   --0-0-0-0--0----0-0-0--0---0----0----0----------------------------------------------|
   ------------------------------------------------------------------------------------|



[BRIDGE] - [CALEB DOESN'T PLAY]

         - [MATTHEW]

e |------------------------------------------------------------------------------------|
B |------------------------------------------------------------------------------------|
G |------------------------------------------------------------------------------------|
D |-9-9-9--7---------------9-9-9--7----------------9-9-9--7-------------------9-9-9--7-|
A |-7-7-7--5---------------7-7-7--5----------------7-7-7--5-------------------7-7-7--5-|
E |-0-0-0--0---------------0-0-0--0----------------0-0-0--0-------------------0-0-0--0-|
           ^
LET THIS   |
RING EACH  |
TIME-------|



[LINK] - [CALEB] @ 01:56

e |-16--1616--16--161616-|
B |-17--1717--17--171717-|
G |-16--1616--16--161616-|
D |----------------------|
A |--PLAY THIS PART x8---|
E |----------------------|


       - [MATTHEW]

e |-12----------------12----------------12-------------12------------------------------
B |----14----------------14----------------14-------------14---------------------------
G |--------13-11--9---------13-11--9---------13-11---------13-11--9----------------
D |------------------------------------------------------------------------------------
A |------------------------------------------------------------------------------------
E |------------------------------------------------------------------------------------

   -12----------------12----------------12-------------12------------------------------|
   ----14----------------14----------------14-------------14---------------------------|
   --------13-11--9---------13-11--9---------13-11---------13-11--9----------------|
   ------------------------------------------------------------------------------------|
   ------------------------------------------------------------------------------------|
   ------------------------------------------------------------------------------------|



[VERSE 3] - [CALEB]

e |-16--1616--16--161616-|
B |-17--1717--17--171717-|
G |-16--1616--16--161616-|
D |----------------------|
A |--PLAY THIS PART x4---|
E |----------------------|


          - [MATTHEW]

e |-12----------------12----------------12-------------12------------------------------|
B |----14----------------14----------------14-------------14---------------------------|
G |--------13-11--9---------13-11--9---------13-11---------13-11--9----------------|
D |------------------------------------------------------------------------------------|
A |------------------------------------------------------------------------------------|
E |------------------------------------------------------------------------------------|



[BRIDGE] - [CALEB DOESN'T PLAY]

         - [MATTHEW]

e |------------------------------------------------------------------------------------|
B |------------------------------------------------------------------------------------|
G |------------------------------------------------------------------------------------|
D |-9-9-99-7---------------9-9-99-7----------------9-9-9--7-------------------9-9-9--7-|
A |-7-7-77-5---------------7-7-77-5----------------7-7-7--5-------------------7-7-7--5-|
E |-0-0-00-0---------------0-0-00-0----------------0-0-0--0-------------------0-0-0--0-|
           ^
LET THIS   |
RING EACH  |
TIME-------|



[LINK] - [CALEB]

    E    E11 E     E11  E    E11 E     E11  E    E11 E     E11  E    E11 E     E11
e |-0-00-000-0--000000--0-00-000-0--000000--0-00-000-0--000000--0-00-000-0--000000-----|
B |-0-00-000-0--000000--0-00-000-0--000000--0-00-000-0--000000--0-00-000-0--000000-----|
G |-1-11-111-1--111111--1-11-111-1--111111--1-11-111-1--111111--1-11-111-1--111111-----|
D |-2-22-000-2--222000--2-22-000-2--222000--2-22-000-2--222000--2-22-000-2--222000-----|
A |-2-22-000-2--222000--2-22-000-2--222000--2-22-000-2--222000--2-22-000-2--222000-----|
E |-0-00-000-0--000000--0-00-000-0--000000--0-00-000-0--000000--0-00-000-0--000000-----|


       - [MATTHEW]

e |------------------------------------------------------------------------------------|
B |------------------------------------------------------------------------------------|
G |------------------------------------------------------------------------------------|
D |------------------------------------------------------------------------------------|
A |-7-75-55-7-77-5-555--7-75-55-7-77-5-555--7-75-55-7-77-5-555--7-75-55-7-77-5-555-----|
E |-0-00-00-0-00-0-000--0-00-00-0-00-0-000--0-00-00-0-00-0-000--0-00-00-0-00-0-000-----|



[OUTRO] - [CALEB]

    E    E11 E     E11  E    E11 E     E11  E    E11 E     E11  E    E11 E     E11
e |-0-00-000-0--000000--0-00-000-0--000000--0-00-000-0--000000--0-00-000-0--000000-----
B |-0-00-000-0--000000--0-00-000-0--000000--0-00-000-0--000000--0-00-000-0--000000-----
G |-1-11-111-1--111111--1-11-111-1--111111--1-11-111-1--111111--1-11-111-1--111111-----
D |-2-22-000-2--222000--2-22-000-2--222000--2-22-000-2--222000--2-22-000-2--222000-----
A |-2-22-000-2--222000--2-22-000-2--222000--2-22-000-2--222000--2-22-000-2--222000-----
E |-0-00-000-0--000000--0-00-000-0--000000--0-00-000-0--000000--0-00-000-0--000000-----

    E    E11 E     E11  E    E11 E     E11  E    E11 E     E11  E
   -0-00-000-0--000000--0-00-000-0--000000--0-00-000-0--000000--0----------------------|
   -0-00-000-0--000000--0-00-000-0--000000--0-00-000-0--000000--0----------------------|
   -1-11-111-1--111111--1-11-111-1--111111--1-11-111-1--111111--1--LET CHORD RING------|
   -2-22-000-2--222000--2-22-000-2--222000--2-22-000-2--222000--2----------------------|
   -2-22-000-2--222000--2-22-000-2--222000--2-22-000-2--222000--2----------------------|
   -0-00-000-0--000000--0-00-000-0--000000--0-00-000-0--000000--0----------------------|


        - [MATTHEW]

e |------------------------------------------------------------------------------------
B |------------------------------------------------------------------------------------
G |------------------------------------------------------------------------------------
D |------------------------------------------------------------------------------------
A |-7-75-55-7-77-5-555--7-75-55-7-77-5-555--7-75-55-7-77-5-555--7-75-55-7-77-5-555-----
E |-0-00-00-0-00-0-000--0-00-00-0-00-0-000--0-00-00-0-00-0-000--0-00-00-0-00-0-000-----

   ------------------------------------------------------------------------------------|
   ------------------------------------------------------------------------------------|
   ------------------------------------------------------------------------------------|
   ------------------------------------------------------------------------------------|
   -7-75-55-7-77-5-555--7-75-55-7-77-5-555--7-75-55-7-77-5-555--7--LET RING------------|
   -0-00-00-0-00-0-000--0-00-00-0-00-0-000--0-00-00-0-00-0-000--0----------------------|






****************************************************************************************
****************************************************************************************
****************************************************************************************
Comments