Kings Of Leon - Soft Chords & Tabs

 

Soft Chords & Tabs

Kings Of Leon Chords & Tabs

Version: 2 Type: Tab 0 ratings
1 star 2 stars 3 stars 4 stars 5 stars
comments

Soft Tab

   
---------------------------------------------------------------------------
Song:Soft
Artist:Kings of Leon
Album:A-Ha Shake Heartbreak
Tabber:Alexthebeatle
---------------------------------------------------------------------------
CHORDS:
C   - 032010
C9  - 032030
          |  (in this chord,Caleb bends the 2nd string eveytime he plays it)
          |
          -------------------)3b

Am  - 002210
F   - 113211
G   - 320033
E   - 022100
E7  - 022130
---------------------------------------------------------------------------
-INTRO:(guitar1:chords / guitar2:tab)

 |------12----12----12-------12-|----12----12----12-------12----|
 |---13----13----12----12-12----|-13----13----12----12-12-------|
 |------------------------------|-------------------------------|
 |------------------------------|-------------------------------|
 |------------------------------|-------------------------------|
 |------------------------------|-------------------------------|

 |------12----12----12-------12-|----12----12----12-------12----|
 |---13----13----12----12-12----|-13----13----12----12-12-------|
 |------------------------------|-------------------------------|
 |------------------------------|-------------------------------|
 |------------------------------|-------------------------------|
 |------------------------------|-------------------------------|

     C           C9               C           C9
 |------12----12----12-------12-|----12----12----12-------12----|
 |---13----13----12----12-12----|-13----13----12----12-12-------|
 |------------------------------|-------------------------------|
 |------------------------------|-------------------------------|
 |------------------------------|-------------------------------|
 |------------------------------|-------------------------------|

     C           C9               C           C9
 |------12----12----12-------12-|----12----12----12-------12----|
 |---13----13----12----12-12----|-13----13----12----12-12-------|
 |------------------------------|-------------------------------|
 |------------------------------|-------------------------------|
 |------------------------------|-------------------------------|
 |------------------------------|-------------------------------|

--------------------------------------------------------------------------
-VERSE 1:

  C               C9
I used to see you every day

 C               C9       C - C9 - C - C9
 used to see you every day

  C                  C9
I danced around your folk and soul

  C                  C9          C - C9 - C - C9
I danced to all your fucking soul

  C                  C9
I left you with your nose a bleedin'

C         C9              C - C9 - C - C9
 and your toes creepin' around

     C              C9
aahh so mundane and incomplete

C               C9        C                C9    C - C9 - C - C9
hand me down my pants and get me off this street

--------------------------------------------------------------------------
-CHORUS:(guitar1:chords / guitar2:tab)

    Am
i'm passed out in your garden

    F
i'm in I can't get off

    G  G  G  G  G  G  G  G  G  G  G  G  G  G  --) (GUITAR 1)
 so soft
  |------------------------------------------------|
  |------------------------------------------------|
  |------------------------------------------------|
  |------------------------------------------------|
  |--x--x--x--x--x--x--x--x--x-x-x-x-x-x-x-x-------|
  |--15-15-14-14-12-12-10-10-8-8-7-7-5-5-3-3--- ---| (GUITAR 2)


    Am
i'd pop myself in your body

    F
i'd come into your party

        G  G  G  G  G  G  G  G  G  G  G  G  G  G  --) (GUITAR 1)
but i'm soft
    |-------------------------------------------------|
    |-------------------------------------------------|
    |-------------------------------------------------|
    |-------------------------------------------------|
    |--x--x--x--x--x--x--x--x--x-x-x-x-x-x-x-x--------|
    |--15-15-14-14-12-12-10-10-8-8-7-7-5-5-3-3---  ---| (GUITAR 2)

----------------------------------------------------------------------------
-VERSE 2: same chords as verse 1. These are the lyrics:
[ Tab from: http://www.guitartabs.cc/tabs/k/kings_of_leon/soft_tab_ver_2.html ]
behind the fringe of a whiskey high
mutilating cat like eyes
and in your nose blood decadence
you try to drag me into your bohemian dancing
you paint my fingers and you paint my toes
you let your perfect nipple show
----------------------------------------------------------------------------

-CHORUS 2:(guitar1:chords / guitar2:tab)

    Am
i'm passed out in your garden

    F
i'm in I can't get off

    G  G  G  G  G  G  G  G  G  G  G  G  G  G  --) (GUITAR 1)
 so soft
  |------------------------------------------------|
  |------------------------------------------------|
  |------------------------------------------------|
  |------------------------------------------------|
  |--x--x--x--x--x--x--x--x--x-x-x-x-x-x-x-x-------|
  |--15-15-14-14-12-12-10-10-8-8-7-7-5-5-3-3--- ---| (GUITAR 2)


    Am
i'd pop myself in your body

    F
i'd come into your party

        G  G  G  G  G  G  G  G  G  G  G  G  G  G  --) (GUITAR 1)
but i'm soft
     |-------------------------------------------------|
     |-------------------------------------------------|
     |-------------------------------------------------|
     |-------------------------------------------------|
     |--x--x--x--x--x--x--x--x--x-x-x-x-x-x-x-x--------|
     |--15-15-14-14-12-12-10-10-8-8-7-7-5-5-3-3---  ---| (GUITAR 2)

----------------------------------------------------------------------------
-SOLO:

GUITAR 1:(play these chords):

 C - E - Am - F
 C - E - Am - F

GUITAR 2:
|----------------------------------------------------------------------|
|----------------------------------------------------------------------|
|----------------------------------------------------------------------|
|----------------------------------------------------------------------|
|--3-3-3-3-3-3-3-3-3---------------------------------------------------|
|--------------------0-0-0-0-4-4-4-4-5-5-5-5-3-3-3-3-1-1-1-1-3-3-3-3---|

|----------------------------------------------------------------------|
|----------------------------------------------------------------------|
|----------------------------------------------------------------------|
|----------------------------------------------------------------------|
|--3-3-3-3-3-3-3-3-3---------------------------------------------------|
|--------------------0-0-0-0-4-4-4-4-5-5-5-5-3-3-3-3-1-1-1-1-3-3-3-3---|

----------------------------------------------------------------------------

-CHORUS 3:(guitar1:chords / guitar2:tab)

    C
i'm passed out in your garden
|------------------------------------|
|----------5------5------5------5----|
|----------5------5------5------5----|
|----------5------5------5------5----|
|------------------------------------|
|------------------------------------|

    E                        Am             F
i'm in I can't get off    so soft
|---------------------------------------------------------|
|------9-------9-----4----4---5---5---3--3--1--1--3--3----|
|------9-------9-----5----5---5---5---4--4--2--2--4--4----|
|------9-------9-----6----6---7---7---5--5--3--3--5--5----|
|---------------------------------------------------------|
|---------------------------------------------------------|


    C
i'd pop myself in your body
|------------------------------------|
|-------5-------5-------5------5-----|
|-------5-------5-------5------5-----|
|-------5-------5-------5------5-----|
|------------------------------------|
|------------------------------------|

    E                            Am             F
i'd come into your party but i'm soft
|------------------------------------------------------------|
|--------9-----9-----4----4------5---5---3--3--1--1--3--3----|
|--------9-----9-----5----5------5---5---4--4--2--2--4--4----|
|--------9-----9-----6----6------7---7---5--5--3--3--5--5----|
|------------------------------------------------------------|
|------------------------------------------------------------|


-AND THEN,(BOTH GUITARS):
    C
i'm passed out in your garden

    E              E7     Am   G  F  G
i'm in I can't get off so soft

    C
i'd pop myself in your body

    E              E7            Am   G  F  G
i'd come into your party but i'm soft
                                          |----------------------|
                                          |--10s9s8s7s6s5s4s3b---|
                                          |----------------------|
                                          |----------------------|
                                          |----------------------|
                                          |----------------------|
Comments