Kings Of Leon - Slow Night, So Long Chords & Tabs

 

Slow Night, So Long Chords & Tabs

Kings Of Leon Chords & Tabs

Version: 1 Type: Tab 0 ratings
1 star 2 stars 3 stars 4 stars 5 stars
comments

Slow Night, So Long Tab

   
*******************************************
*KINGS OF LEON - SLOW NIGHT, SO LONG - TAB*
*******************************************


Group/Singer Name:      Kings Of Leon
Song:                   "Slow Night, So Long"
Additional Info:        Aha Shake Heartbreak - Track 01
Tuning:                 Standard - [EADGBe]
Tabbed By:              Dean Hill - Comments, Suggestions? the.scotsman@blueyonder.co.uk

b  -  Bend
sb -  Slow Bend
() -  Bracketed numbers are the note you bend up to
h  -  Hammer On
p  -  Pull Off
r  -  Return
/  -  Slide Up
  -  Slide Down
d  -  Strum Down
u  -  Strum Up
PM -  Palm Mute
 -  Natural Harmonics
^  -  Vibrato






[INTRO] - [CALEB] x3 [This is the main INTRO and LINK part Caleb Plays]

    A9               A9           A6 A9 Dmaj/A           Dmaj/A
e |-------------------------------------2----------------2-----------------------------|
B |-5----------------5------------7--5--3----------------3-----------------------------|
G |-4----------------4------------6--4--2----------------2-----------------------------|
D |-5----------------5------------7--5--0----------------0-----------------------------|
A |-0---00--00--00--00---00--00--00--0--0---00--00--00--00---00--00--00--0-------------|
E |------------------------------------------------------------------------------------|


        - [MATTHEW] @ 00:28
    A9
e |------------------------------------------------------------------------------------|
B |-5----------------------------------------------------------------------------------|
G |-4----------------------------------------------------------------------------------|
D |-5----------------------------------------------------------------------------------|
A |-0---00--00--00---0---00--00--00-----0---00--00--00---0---00--00--00----------------|
E |------------------------------------------------------------------------------------|



[VERSE 1] - [CALEB] [Just a variation of his INTRO and LINK part]

    A9               A9                 Dmaj/A           Dmaj/A
e |-------------------------------------2----------------2-----------------------------|
B |-5----------------5------------------3----------------3-----------------------------|
G |-4----------------4------------------2----------------2-----------------------------|
D |-5----------------5------------------0----------------0-----------------------------|
A |-0---00---0--00---0---00---0--00-----0---00---0--00--00---00---0--00-0--------------|
E |------------------------------------------------------------------------------------|


          - [MATTHEW]

e |-----------------0--------------------0---------------------0---------------------0-|
B |------------14--17---------------14--17----10-/12--14--17--15----10-/12--14--17--15-|
G |-9--11-/16------------9--11-/16-----------------------------------------------------|
D |------------------------------------------------------------------------------------|
A |------------------------------------------------------------------------------------|
E |------------------------------------------------------------------------------------|



[LINK 1] - [CALEB]

    A9               A9           A6 A9 Dmaj/A           Dmaj/A
e |-------------------------------------2----------------2-----------------------------|
B |-5----------------5------------7--5--3----------------3-----------------------------|
G |-4----------------4------------6--4--2----------------2-----------------------------|
D |-5----------------5------------7--5--0----------------0-----------------------------|
A |-0---00--00--00--00---00--00--00--0--0---00--00--00--00---00--00--00--0-------------|
E |------------------------------------------------------------------------------------|


        - [MATTHEW]
    A9
e |------------------------------------------------------------------------------------|
B |-5----------------------------------------------------------------------------------|
G |-4----------------------------------------------------------------------------------|
D |-5----------------------------------------------------------------------------------|
A |-0---00--00--00---0---00--00--00-----0---00--00--00---0---00--00--00----------------|
E |------------------------------------------------------------------------------------|



[VERSE 2] - [CALEB]

    A9               A9                 Dmaj/A           Dmaj/A
e |-------------------------------------2----------------2-----------------------------|
B |-5----------------5------------------3----------------3-----------------------------|
G |-4----------------4------------------2----------------2-----------------------------|
D |-5----------------5------------------0----------------0-----------------------------|
A |-0---00---0--00---0---00---0--00-----0---00---0--00--00---00---0--00-0--------------|
E |------------------------------------------------------------------------------------|


          - [MATTHEW]

e |-----------------0--------------------0---------------------0---------------------0-|
B |------------14--17---------------14--17----10-/12--14--17--15----10-/12--14--17--15-|
G |-9--11-/16------------9--11-/16-----------------------------------------------------|
D |------------------------------------------------------------------------------------|
A |------------------------------------------------------------------------------------|
E |------------------------------------------------------------------------------------|

  |--0------|
  |-15b(16)-|
  |---------|
  |---------|
  |---------|
  |---------|



[BRIDGE] - [CALEB]

    A                                                          D
e |-5-5--5-5-5--5-5-5--5-5-5-------5-5--5-5-5--5-5-5--5-5-5----10101010-1010-1010-1010-
B |-5-5--5-5-5--5-5-5--5-5-5-------5-5--5-5-5--5-5-5--5-5-5----10101010-1010-1010-1010-
G |-6-6--6-6-6--6-6-6--6-6-6-------6-6--6-6-6--6-6-6--6-6-6----11111111-1111-1111-1111-
D |-7-7--7-7-7--7-7-7--7-7-7-------7-7--7-7-7--7-7-7--7-7-7----12121212-1212-1212-1212-
A |-7-7--7-7-7--7-7-7--7-7-7-------7-7--7-7-7--7-7-7--7-7-7----12121212-1212-1212-1212-
E |-5-5--5-5-5--5-5-5--5-5-5-------5-5--5-5-5--5-5-5--5-5-5----10101010-1010-1010-1010-
                                    
   -10101010-1010-1010-1010--------10101010-1010-1010-1010-----10101010-1010-1010-1010-
   -10101010-1010-1010-1010--------10101010-1010-1010-1010-----10101010-1010-1010-1010-
   -11111111-1111-1111-1111--------11111111-1111-1111-1111-----11111111-1111-1111-1111-
   -12121212-1212-1212-1212--------12121212-1212-1212-1212-----12121212-1212-1212-1212-
   -12121212-1212-1212-1212--------12121212-1212-1212-1212-----12121212-1212-1212-1212-
   -10101010-1010-1010-1010--------10101010-1010-1010-1010-----10101010-1010-1010-1010-

    A                                                          D
   -55-5-5--5-5-5--5-5-5--5-5-5----5-5--5-5-5--5-5-5--5-5-5----10101010-1010-1010-1010-
   -55-5-5--5-5-5--5-5-5--5-5-5----5-5--5-5-5--5-5-5--5-5-5----10101010-1010-1010-1010-
   -66-6-6--6-6-6--6-6-6--6-6-6----6-6--6-6-6--6-6-6--6-6-6----11111111-1111-1111-1111-
   -77-7-7--7-7-7--7-7-7--7-7-7----7-7--7-7-7--7-7-7--7-7-7----12121212-1212-1212-1212-
   -77-7-7--7-7-7--7-7-7--7-7-7----7-7--7-7-7--7-7-7--7-7-7----12121212-1212-1212-1212-
   -55-5-5--5-5-5--5-5-5--5-5-5----5-5--5-5-5--5-5-5--5-5-5----10101010-1010-1010-1010-
                                    
   -10101010-1010-1010-1010--------10101010-1010-1010-1010-----10101010-1010-1010-1010-|
   -10101010-1010-1010-1010--------10101010-1010-1010-1010-----10101010-1010-1010-1010-|
   -11111111-1111-1111-1111--------11111111-1111-1111-1111-----11111111-1111-1111-1111-|
   -12121212-1212-1212-1212--------12121212-1212-1212-1212-----12121212-1212-1212-1212-|
   -12121212-1212-1212-1212--------12121212-1212-1212-1212-----12121212-1212-1212-1212-|
   -10101010-1010-1010-1010--------10101010-1010-1010-1010-----10101010-1010-1010-1010-|


        - [MATTHEW] [Watch your timing on the "A" part, it looks easy, but it's quite tricky]
    A                                 D
e |-5--5--5--5--5--5--5--5-5--5-5-5---1010--1010-1010-1010---X--1010--1010-1010-1010-X-
B |-5--5--5--5--5--5--5--5-5--5-5-5---1010--1010-1010-1010---X--1010--1010-1010-1010-X-
G |-6--6--6--6--6--6--6--6-6--6-6-6---1111--1111-1111-1111---X--1111--1111-1111-1111-X-
D |-7--7--7--7--7--7--7--7-7--7-7-7---1212--1212-1212-1212---X--1212--1212-1212-1212-X-
A |-7--7--7--7--7--7--7--7-7--7-7-7---1212--1212-1212-1212---X--1212--1212-1212-1212-X-
E |-5--5--5--5--5--5--5--5-5--5-5-5---1010--1010-1010-1010---X--1010--1010-1010-1010-X-

                                                       A
   -1010--1010-1010-1010---X--1010--1010-1010-1010--X--5--5--5--5--5--5--5--5-5--5-5-5-
   -1010--1010-1010-1010---X--1010--1010-1010-1010--X--5--5--5--5--5--5--5--5-5--5-5-5-
   -1111--1111-1111-1111---X--1111--1111-1111-1111--X--6--6--6--6--6--6--6--6-6--6-6-6-
   -1212--1212-1212-1212---X--1212--1212-1212-1212--X--7--7--7--7--7--7--7--7-7--7-7-7-
   -1212--1212-1212-1212---X--1212--1212-1212-1212--X--7--7--7--7--7--7--7--7-7--7-7-7-
   -1010--1010-1010-1010---X--1010--1010-1010-1010--X--5--5--5--5--5--5--5--5-5--5-5-5-

    D
   -1010--1010-1010-1010---X--1010--1010-1010-1010---X--1010--1010-1010-1010-X---------
   -1010--1010-1010-1010---X--1010--1010-1010-1010---X--1010--1010-1010-1010-X---------
   -1111--1111-1111-1111---X--1111--1111-1111-1111---X--1111--1111-1111-1111-X---------
   -1212--1212-1212-1212---X--1212--1212-1212-1212---X--1212--1212-1212-1212-X---------
   -1212--1212-1212-1212---X--1212--1212-1212-1212---X--1212--1212-1212-1212-X---------
   -1010--1010-1010-1010---X--1010--1010-1010-1010---X--1010--1010-1010-1010-X---------
   
   -1010--1010-1010-1010---X-----------------------------------------------------------|
   -1010--1010-1010-1010---X-----------------------------------------------------------|
   -1111--1111-1111-1111---X-----------------------------------------------------------|
   -1212--1212-1212-1212---X-----------------------------------------------------------|
   -1212--1212-1212-1212---X-----------------------------------------------------------|
   -1010--1010-1010-1010---X-----------------------------------------------------------|



[LINK 2] - [CALEB]
[ Tab from: http://www.guitartabs.cc/tabs/k/kings_of_leon/slow_night_so_long_tab.html ]
    A9               A9           A6 A9 Dmaj/A           Dmaj/A
e |-------------------------------------2----------------2-----------------------------|
B |-5----------------5------------7--5--3----------------3-----------------------------|
G |-4----------------4------------6--4--2----------------2-----------------------------|
D |-5----------------5------------7--5--0----------------0-----------------------------|
A |-0---00--00--00--00---00--00--00--0--0---00--00--00--00---00--00--00--0-------------|
E |------------------------------------------------------------------------------------|


        - [MATTHEW]
    A9
e |------------------------------------------------------------------------------------|
B |-5----------------------------------------------------------------------------------|
G |-4----------------------------------------------------------------------------------|
D |-5----------------------------------------------------------------------------------|
A |-0---00--00--00---0---00--00--00-----0---00--00--00---0---00--00--00----------------|
E |------------------------------------------------------------------------------------|



[VERSE 3] - [CALEB]

    A9               A9       A9        Dmaj/A   Dmaj/A  Dmaj/A
e |-------------------------------------2--------2-------2-----------------------------|
B |-5----------------5--------5---------3--------3-------3-----------------------------|
G |-4----------------4--------4---------2--------2-------2-----------------------------|
D |-5----------------5--------5---------0--------0-------0-----------------------------|
A |-0---00---0--00---0---00---0--00-0---0---00---0--00--00---00---0--00-0--------------|
E |------------------------------------------------------------------------------------|


          - [MATTHEW]

e |-----------------0--------------------0---------------------0---------------------0-|
B |------------14--17---------------14--17----10-/12--14--17--15----10-/12--14--17--15-|
G |-9--11-/16------------9--11-/16-----------------------------------------------------|
D |------------------------------------------------------------------------------------|
A |------------------------------------------------------------------------------------|
E |------------------------------------------------------------------------------------|

  |--0------|
  |-15b(16)-|
  |---------|
  |---------|
  |---------|
  |---------|



[BRIDGE] - [CALEB]

    A                                                          D
e |-5-5--5-5-5--5-5-5--5-5-5-------5-5--5-5-5--5-5-5--5-5-5----10101010-1010-1010-1010-
B |-5-5--5-5-5--5-5-5--5-5-5-------5-5--5-5-5--5-5-5--5-5-5----10101010-1010-1010-1010-
G |-6-6--6-6-6--6-6-6--6-6-6-------6-6--6-6-6--6-6-6--6-6-6----11111111-1111-1111-1111-
D |-7-7--7-7-7--7-7-7--7-7-7-------7-7--7-7-7--7-7-7--7-7-7----12121212-1212-1212-1212-
A |-7-7--7-7-7--7-7-7--7-7-7-------7-7--7-7-7--7-7-7--7-7-7----12121212-1212-1212-1212-
E |-5-5--5-5-5--5-5-5--5-5-5-------5-5--5-5-5--5-5-5--5-5-5----10101010-1010-1010-1010-
                                    
   -10101010-1010-1010-1010--------10101010-1010-1010-1010-----10101010-1010-1010-1010-
   -10101010-1010-1010-1010--------10101010-1010-1010-1010-----10101010-1010-1010-1010-
   -11111111-1111-1111-1111--------11111111-1111-1111-1111-----11111111-1111-1111-1111-
   -12121212-1212-1212-1212--------12121212-1212-1212-1212-----12121212-1212-1212-1212-
   -12121212-1212-1212-1212--------12121212-1212-1212-1212-----12121212-1212-1212-1212-
   -10101010-1010-1010-1010--------10101010-1010-1010-1010-----10101010-1010-1010-1010-

    A                                                          D
   -55-5-5--5-5-5--5-5-5--5-5-5----5-5--5-5-5--5-5-5--5-5-5----10101010-1010-1010-1010-
   -55-5-5--5-5-5--5-5-5--5-5-5----5-5--5-5-5--5-5-5--5-5-5----10101010-1010-1010-1010-
   -66-6-6--6-6-6--6-6-6--6-6-6----6-6--6-6-6--6-6-6--6-6-6----11111111-1111-1111-1111-
   -77-7-7--7-7-7--7-7-7--7-7-7----7-7--7-7-7--7-7-7--7-7-7----12121212-1212-1212-1212-
   -77-7-7--7-7-7--7-7-7--7-7-7----7-7--7-7-7--7-7-7--7-7-7----12121212-1212-1212-1212-
   -55-5-5--5-5-5--5-5-5--5-5-5----5-5--5-5-5--5-5-5--5-5-5----10101010-1010-1010-1010-
                                    
   -10101010-1010-1010-1010--------10101010-1010-1010-1010-----10101010-1010-1010-1010-
   -10101010-1010-1010-1010--------10101010-1010-1010-1010-----10101010-1010-1010-1010-
   -11111111-1111-1111-1111--------11111111-1111-1111-1111-----11111111-1111-1111-1111-
   -12121212-1212-1212-1212--------12121212-1212-1212-1212-----12121212-1212-1212-1212-
   -12121212-1212-1212-1212--------12121212-1212-1212-1212-----12121212-1212-1212-1212-
   -10101010-1010-1010-1010--------10101010-1010-1010-1010-----10101010-1010-1010-1010-
   
   -1010101010-----------------------------|
   -1010101010-----------------------------|
   -1111111111--[LET THE FINAL CHORD RING]-|
   -1212121212-----------------------------|
   -1212121212-----------------------------|
   -1010101010-----------------------------|


        - [MATTHEW]
    A                                 D
e |-5--5--5--5--5--5--5--5-5--5-5-5---1010--1010-1010-1010---X--1010--1010-1010-1010-X-
B |-5--5--5--5--5--5--5--5-5--5-5-5---1010--1010-1010-1010---X--1010--1010-1010-1010-X-
G |-6--6--6--6--6--6--6--6-6--6-6-6---1111--1111-1111-1111---X--1111--1111-1111-1111-X-
D |-7--7--7--7--7--7--7--7-7--7-7-7---1212--1212-1212-1212---X--1212--1212-1212-1212-X-
A |-7--7--7--7--7--7--7--7-7--7-7-7---1212--1212-1212-1212---X--1212--1212-1212-1212-X-
E |-5--5--5--5--5--5--5--5-5--5-5-5---1010--1010-1010-1010---X--1010--1010-1010-1010-X-

                                                       A
   -1010--1010-1010-1010---X--1010--1010-1010-1010--X--5--5--5--5--5--5--5--5-5--5-5-5-
   -1010--1010-1010-1010---X--1010--1010-1010-1010--X--5--5--5--5--5--5--5--5-5--5-5-5-
   -1111--1111-1111-1111---X--1111--1111-1111-1111--X--6--6--6--6--6--6--6--6-6--6-6-6-
   -1212--1212-1212-1212---X--1212--1212-1212-1212--X--7--7--7--7--7--7--7--7-7--7-7-7-
   -1212--1212-1212-1212---X--1212--1212-1212-1212--X--7--7--7--7--7--7--7--7-7--7-7-7-
   -1010--1010-1010-1010---X--1010--1010-1010-1010--X--5--5--5--5--5--5--5--5-5--5-5-5-

    D
   -1010--1010-1010-1010---X--1010--1010-1010-1010---X--1010--1010-1010-1010---X-------
   -1010--1010-1010-1010---X--1010--1010-1010-1010---X--1010--1010-1010-1010---X-------
   -1111--1111-1111-1111---X--1111--1111-1111-1111---X--1111--1111-1111-1111---X-------
   -1212--1212-1212-1212---X--1212--1212-1212-1212---X--1212--1212-1212-1212---X-------
   -1212--1212-1212-1212---X--1212--1212-1212-1212---X--1212--1212-1212-1212---X-------
   -1010--1010-1010-1010---X--1010--1010-1010-1010---X--1010--1010-1010-1010---X-------
   
   -1010--1010-1010-1010---X--1010101010-----------------------------------------------|
   -1010--1010-1010-1010---X--10101010XX-----------------------------------------------|
   -1111--1111-1111-1111---X--1111111111-[LET THE FINAL CHORD RING]--------------------|
   -1212--1212-1212-1212---X--1212121212-----------------------------------------------|
   -1212--1212-1212-1212---X--1212121212-----------------------------------------------|
   -1010--1010-1010-1010---X--1010101010-----------------------------------------------|



[CODA] - [CALEB]

    Am        Asus4    G                       Am        Asus4    G
e |------------------------------------------------------------------------------------
B |-5------------------------------------------5---------------------------------------
G |-5----5----7----7---4---------4-----4-------5----5----7----7---4---------4-----4----
D |-7-----7---7-----7--5------5--5-------------7-----7---7-----7--5------5--5----------
A |-0---------5--5---0-5--5------5---5--0------0---------5--5---0-5--5------5---5--0---
E |-----------5--------3-----3---3-----------------------5--------3-----3---3----------

    Am        Asus4    G                       Am        Asus4    G
   ------------------------------------------------------------------------------------
   -5------------------------------------------5---------------------------------------
   -5----5----7----7---4---------4-----4-------5----5----7----7---4---------4-----4----
   -7-----7---7-----7--5------5--5-------------7-----7---7-----7--5------5--5----------
   -0---------5--5---0-5--5------5---5--0------0---------5--5---0-5--5------5---5--0---
   -----------5--------3-----3---3-----------------------5--------3-----3---3----------

    Am        Asus4    G                       Am        Asus4    G
   ------------------------------------------------------------------------------------
   -5------------------------------------------5---------------------------------------
   -5---------7--------4---------4-------------5---------7--------4---------4----------
   -7---------7--------5---------5-------------7---------7--------5---------5----------
   -0---------5--------5---------5-------------0---------5--------5---------5----------
   -----------5--------3---------3-----------------------5--------3---------3----------

    Am        Asus4    G                       Am        Asus4    G
   ------------------------------------------------------------------------------------
   -5------------------------------------------5---------------------------------------
   -5---------7--------4---------4-------------5---------7--------4---------4----------
   -7---------7--------5---------5-------------7---------7--------5---------5----------
   -0---------5--------5---------5-------------0---------5--------5---------5----------
   -----------5--------3---------3-----------------------5--------3---------3----------

    Am        Asus4    G                       Am        Asus4    G [LET CHORD RING]
   ------------------------------------------------------------------------------------
   -5------------------------------------------5---------------------------------------
   -5---------7--------4---------4-------------5---------7--------4--------------------
   -7---------7--------5---------5-------------7---------7--------5--------------------
   -0---------5--------5---------5-------------0---------5--------5--------------------
   -----------5--------3---------3-----------------------5--------3--------------------


       - [MATTHEW] @ 03:01

  [THIS PART x7]                           [THEN THIS FINAL PART]
e |----------------------------------------|-------------------------------------------|
B |-------12----------10-------------10----|-------------------------------------------|
G |----12-----------9-------------------12-|-------------------------------------------|
D |-12----------10----------10/1210-------|-12------10--9----------------------------|
A |----------------------------------------|-------------------------------------------|
E |----------------------------------------|-------------------------------------------|






****************************************************************************************
****************************************************************************************
****************************************************************************************
Comments