Kings Of Leon - Slow Night, So Long Chords & Tabs

 

Slow Night, So Long Chords & Tabs

Kings Of Leon Chords & Tabs

Version: 1 Type: Chords 0 ratings
1 star 2 stars 3 stars 4 stars 5 stars
comments

Slow Night, So Long Chords

   
-------------------------------------------------------------------------
Song:Slow Nights, So Long 
Artist:Kings of Leon
Album:A-Ha Shake Heartbreak
Tabber:Alexthebeatle 
-------------------------------------------------------------------------

 -I've only tabbed the last part of the song, because I think the
 first part was perfect in Deano's tab (the one of the whole album)
 but the last thing isn't right:

 -You just have to play this 3 chords all trough the song:
 
    C9      D7      G
 ---0-------x-------3--------|
 ---3-------1-------0--------|
 ---5-------2-------0--------|
 ---5-------0-------0--------|
 -------------------2--------|
 -------------------3--------|

[ Tab from: http://www.guitartabs.cc/tabs/k/kings_of_leon/slow_night_so_long_crd.html ]
   C9                      D7
   Rise and shine all you,      gold-digging mothers,
  
       G         
   Are you too good to tango with the poor poor boys?
 
   C9                      D7
   Rise and shine all you,      gold-digging mothers,
  
       G        
   Are you too good to tango with the poor poor boys?
  
   C9                      D7          
   Rise and shine all you,      gold-digging mothers,
   
       G      
   Are you too good to tango with the poor poor boys?
  
   C9                      D7                          G
   Rise and shine all you,      gold-digging mother-er-ers.


 -OUTRO TAB:
 
   C9         D7        G       C9         D7          G
 ----------------------------|---------------------0-2-3---|
 --3--3-3-5-0-3--3-3-1-0-0---|--3--3-3-5-0-3--3-3----------|
 ----------------------------|-----------------------------|
 ----------------------------|-----------------------------|
 ----------------------------|-----------------------------|
 ----------------------------|-----------------------------|
Comments