Kings Of Leon - Rememo Chords & Tabs

 

Rememo Chords & Tabs

Kings Of Leon Chords & Tabs

Version: 1 Type: Tab 0 ratings
1 star 2 stars 3 stars 4 stars 5 stars
comments

Rememo Tab

   
#----------------------------------PLEASE NOTE---------------------------------#
#This file is the author's own work and represents their interpretation of the #
#song. You may only use this file for private study, scholarship, or research. #
#------------------------------------------------------------------------------#

******************************
*KINGS OF LEON - REMEMO - TAB*
******************************

Group/Singer Name:      Kings Of Leon
Song:                   "Rememo"
Additional Info:        Aha Shake Heartbreak - Track 12
Tuning:                 Standard - [EADGBe]
Tabbed By:              Dean Hill - Comments, Suggestions? the.scotsman@blueyonder.co.uk


[Chords Used]   Esus4(XXX9[10][12]); E6sus(XXX9[10]9); D([10][12][12][11][10][10]);
                E([12][14][14][13][12][12]) + SEE TAB


[Intro]         [WALTZ SAMPLE]

                | 1  &  2  &  3  & | 1  &  2  &  3  & | 1  &  2  &  3  & | 1  &  2  &  3  & |
                |------------------|------------------|------------------|------------------|
                | BASS             | BASS             | BASS             | BASS             |
                | Esus4            | E6sus            | Esus4            | E6sus            |
                | Esus4            | E6sus            | Esus4            | E6sus            |
                | Esus4            | E6sus            | Esus4            | E6sus            |

b  -  Bend
sb -  Slow Bend
() -  Bracketed numbers are the note you bend up to
h  -  Hammer On
p  -  Pull Off
r  -  Return
/  -  Slide Up
  -  Slide Down
d  -  Strum Down
u  -  Strum Up
PM -  Palm Mute
 -  Natural Harmonics
^  -  Vibrato






[INTRO] - [MATTHEW] @ 00:12 (Caleb just sings in this one, nothing played!)

    Esus4  E6sus  Esus4  E6sus
e |-12-----9------12-----9--9--9-------------------------------------------------------|
B |-10----10------10----10-10-10-------------------------------------------------------|
G |--9-----9-------9-----9--9--9-------------------------------------------------------|
D |------------------------------------------------------------------------------------|
A |-[--PLAY THIS PART 3 TIMES---]------------------------------------------------------|
E |------------------------------------------------------------------------------------|



[VERSE 1] - [MATTHEW]

   "On a plane..."     "Dripping beards..."

    Esus4               D
e |-12------------------10-------------------------------------------------------------|
B |-10------------------10-------------------------------------------------------------|
G |--9------------------11-------------------------------------------------------------|
D |---------------------12-------------------------------------------------------------|
A |---------------------12-------------------------------------------------------------|
E |---------------------10-------------------------------------------------------------|



[LINK] - [MATTHEW]

    Esus4  E6sus  Esus4  E6sus
e |-12-----9------12-----9--9--9-------------------------------------------------------|
B |-10----10------10----10-10-10-------------------------------------------------------|
G |--9-----9-------9-----9--9--9-------------------------------------------------------|
D |------------------------------------------------------------------------------------|
A |-[--PLAY THIS PART 3 TIMES---]------------------------------------------------------|
E |------------------------------------------------------------------------------------|



[VERSE 2] - [MATTHEW]

   "Honestly..."       "Dripping beards..."

    Esus4               D
e |-12------------------10-------------------------------------------------------------|
B |-10------------------10-------------------------------------------------------------|
G |--9------------------11-------------------------------------------------------------|
D |---------------------12-------------------------------------------------------------|
A |---------------------12-------------------------------------------------------------|
E |---------------------10-------------------------------------------------------------|



[LINK] - [MATTHEW]

    Esus4  E6sus  Esus4  E6sus
e |-12-----9------12-----9-------------------------------------------------------------|
B |-10----10------10----10-------------------------------------------------------------|
G |--9-----9-------9-----9-------------------------------------------------------------|
D |------------------------------------------------------------------------------------|
A |------------------------------------------------------------------------------------|
E |------------------------------------------------------------------------------------|



[CHORUS] - [MATTHEW]

"This rememo..."

      E
e |---12-------------------------------------------------------------------------------|
B |---12-------------------------------------------------------------------------------|
G |---13-------------------------------------------------------------------------------|
D |---14-------------------------------------------------------------------------------|
A |---14-------------------------------------------------------------------------------|
E |---12-------------------------------------------------------------------------------|



[LINK] - [MATTHEW]
[ Tab from: http://www.guitartabs.cc/tabs/k/kings_of_leon/rememo_tab.html ]
    Esus4  E6sus  Esus4  E6sus     Esus4  E6sus  Esus4  E6sus
e |-12-----9------12-----9--9--9---12-----9------12-----9------------------------------|
B |-10----10------10----10-10-10---10----10------10----10------------------------------|
G |--9-----9-------9-----9--9--9----9-----9-------9-----9------------------------------|
D |------------------------------------------------------------------------------------|
A |------------------------------------------------------------------------------------|
E |------------------------------------------------------------------------------------|



[SOLO] - [MATTHEW]

e |------------------------------------------------------------------------------------
B |---------------------------------------------------------------------------10-------
G |---------------------------------------------------9---------9--7-6-----------------
D |----------------------/11--14---11-14--117-7--9/11---11/12-11--9-7----9/11---------
A |-/9--12--9-12--9-------------------------------------------------------------------
E |-------------------5----------------------------------------------------------------
                                                    E6sus  Esus4  E6sus
e |--------------------------------------------------9-----12------9-9-9---------------|
B |----------------------------------------------10-10-----10-----101010---------------|
G |----9-----11--9-7------11----13--11--9------------9------9------9-9-9---------------|
D |-----------------------------------------9/11---------------------------------------|
A |-/11---11-11-11-9--9/12----14--12--11-----------------------------------------------|
E |------------------------------------------------------------------------------------|



[LINK] - [MATTHEW]

    Esus4  E6sus  Esus4  E6sus
e |-12-----9------12-----9--9--9-------------------------------------------------------|
B |-10----10------10----10-10-10-------------------------------------------------------|
G |--9-----9-------9-----9--9--9-------------------------------------------------------|
D |------------------------------------------------------------------------------------|
A |------------------------------------------------------------------------------------|
E |------------------------------------------------------------------------------------|



[VERSE 3] - [MATTHEW]

"I'm overdue..."       "Dripping beards..."

     Esus4              D
e |--12-----------------10-------------------------------------------------------------|
B |--10-----------------10-------------------------------------------------------------|
G |---9-----------------11-------------------------------------------------------------|
D |---------------------12-------------------------------------------------------------|
A |---------------------12-------------------------------------------------------------|
E |---------------------10-------------------------------------------------------------|



[LINK] - [MATTHEW]

    Esus4  E6sus  Esus4  E6sus
e |-12-----9------12-----9-------------------------------------------------------------|
B |-10----10------10----10-------------------------------------------------------------|
G |--9-----9-------9-----9-------------------------------------------------------------|
D |------------------------------------------------------------------------------------|
A |------------------------------------------------------------------------------------|
E |------------------------------------------------------------------------------------|



[CHORUS] - [MATTHEW]    

"This rememo..."

      E
e |---12-------------------------------------------------------------------------------|
B |---12-------------------------------------------------------------------------------|
G |---13-------------------------------------------------------------------------------|
D |---14-------------------------------------------------------------------------------|
A |---14-------------------------------------------------------------------------------|
E |---12-------------------------------------------------------------------------------|



[OUTRO] - [MATTHEW]

    Esus4  E6sus  Esus4  E6sus     Esus4  E6sus  Esus4  E6sus     Esus4
e |-12-----9------12-----9--9--9---12-----9------12-----9--9--9---12-------------------
B |-10----10------10----10-10-10---10----10------10----10-10-10---10-------------------
G |--9-----9-------9-----9--9--9----9-----9-------9-----9--9--9----9-------------------
D |------------------------------------------------------------------------------------
A |------------------------------------------------------------------------------------
E |------------------------------------------------------------------------------------


          [The song fades out with what sounds like MATTHEW playing little stabs of...]

   ------------------------------------------------------------------------------------|
   ------------------------------------------------------------------------------------|
   ------------------------------------------------------------------------------------|
   -9-9--------11--[ETC....TO FADE]----------------------------------------------------|
   ------------------------------------------------------------------------------------|
   ------------------------------------------------------------------------------------|






****************************************************************************************
****************************************************************************************
****************************************************************************************
Comments