Kings Of Leon - Razz Chords & Tabs

 

Razz Chords & Tabs

Kings Of Leon Chords & Tabs

Version: 1 Type: Tab 0 ratings
1 star 2 stars 3 stars 4 stars 5 stars
comments

Razz Tab

   
#----------------------------------PLEASE NOTE---------------------------------#
#This file is the author's own work and represents their interpretation of the #
#song. You may only use this file for private study, scholarship, or research. #
#------------------------------------------------------------------------------#

Group/Singer Name:      Kings Of Leon
Song:                   "Razz"
Additional Info:        Aha Shake Heartbreak - Track 08
Tuning:                 Standard - [EADGBe]
Tabbed By:              Dean Hill - Comments, Suggestions? the.scotsman@blueyonder.co.uk


[Chords Used]   G(3554XX); Em7(0554XX); F#(244322); A(577655); B(799877) + SEE TAB


[Intro]         | 1 & 2 & 3 & 4 & | 1 & 2 & 3 & 4 & | 1 & 2 & 3 & 4 & | 1 & 2 & 3 & 4 & |
                |-----------------|-----------------|-----------------|-----------------|
                | BASS            | BASS            | BASS            | BASS + DRUMS    |
                |   Em7     G     |   Em7     G     |   Em7     G     |   Em7     G     |



[Chorus]        | F#              | F#              | F#              | A               |
                                                                                Razz the (kid)
                | F#              | F#              | F#              | A               |
                  kid.                                                          Razz the (kid)


[Chorus/Solo]   | F#              | A       B       | F#              | A       B       |
                  kid.
                | F#              | A       B       | F#              | A       B       |
                | F#              | A       B       | F#              | A       B       |
                | F#              | A       B       | F#              | A       B       |


[Outro]         | BASS            | BASS            | BASS            | A       B       |
                | F#              | F#              | F#              | A               |
                                                                                Razz the (kid)
                | F#              | F#              | F#              | A               |
                  kid.                                                          Razz the (kid)
                | F#              | F#              | F#              | A               |
                  kid                                                           Razz the (kid)
                | F#              | F#              | F#              | A               |
                  kid.


****************************
*KINGS OF LEON - RAZZ - TAB*
****************************



b  -  Bend
sb -  Slow Bend
() -  Bracketed numbers are the note you bend up to
h  -  Hammer On
p  -  Pull Off
r  -  Return
/  -  Slide Up
  -  Slide Down
d  -  Strum Down
u  -  Strum Up
PM -  Palm Mute
 -  Natural Harmonics
^  -  Vibrato






[INTRO] - [CALEB] @ 00:07

  | 1 & 2 & 3 & 4 & | 1 & 2 & 3 & 4 & | 1 & 2 & 3 & 4 & | 1 & 2 & 3 & 4 & |
  |                 |                 |                 |                 |
  |   Em7     G     |   Em7     G     |   Em7     G     |   Em7     G     |
e |-----------------------------------------------------------------------|
B |-----------------------------------------------------------------------|
G |-----------4---4-------------4---4-------------4---4-------------4---4-|
D |-----------5---5-------------5---5-------------5---5-------------5---5-|
A |---5---5---5---5-----5---5---5---5-----5---5---5---5-----5---5---5---5-|
E |---0---0---3---3-----0---0---3---3-----0---0---3---3-----0---0---3---3-|


        - [MATTHEW] @ 00:07

e |------------------------------------------------------------------------------------|
B |------------------5-----------------2-----------------5-----------------2-----------|
G |------------------5-----------------2-----------------5-----------------2-----------|
D |------------------5-----------------2-----------------5-----------------2-----------|
A |-7--------------------7-----------------7-----------------7------------------------|
E |------0--3--0--5---------0--3--0--5--------0--3--0--5--------0--3--0--5-------------|



[VERSE 1] - [CALEB]

  | 1 & 2 & 3 & 4 & | 1 & 2 & 3 & 4 & | 1 & 2 & 3 & 4 & | 1 & 2 & 3 & 4 & 
  |                 |                 |                 |                 
  |   Em7     G     |   Em7     G     |   Em7     G     |   Em7     G     
e |-----------------------------------------------------------------------
B |-----------------------------------------------------------------------
G |-----------4---4-------------4---4-------------4---4-------------4---4-
D |-----------5---5-------------5---5-------------5---5-------------5---5-
A |---5---5---5---5-----5---5---5---5-----5---5---5---5-----5---5---5---5-
E |---0---0---3---3-----0---0---3---3-----0---0---3---3-----0---0---3---3-

    1 & 2 & 3 & 4 & | 1 & 2 & 3 & 4 & | 1 & 2 & 3 & 4 & | 1 & 2 & 3 & 4 & |
                    |                 |                 |                 |
      Em7     G     |   Em7    G      |   Em7     G     |   Em7     G     |
   -----------------------------------------------------------------------|
   -----------------------------------------------------------------------|
   -----------4---4-------------4---4-------------4---4---------4---4---4-|
   -----------5---5-------------5---5-------------5---5---------5---5---5-|
   ---5---5---5---5-----5---5---5---5-----5---5---5---5-----5---5---5---5-|
   ---0---0---3---3-----0---0---3---3-----0---0---3---3-----0---0---3---3-|


          - [MATTHEW] (NOTHING PLAYED)



[CHORUS] - [CALEB]

    F#              F#              F#              A
e |-22-22-22-22-----22-22-22-22-----22-22-22-22-----55-55-55-55------------------------|
B |-22-22-22-22-----22-22-22-22-----22-22-22-22-----55-55-55-55------------------------|
G |-33-33-33-33-----33-33-33-33-----33-33-33-33-----66-66-66-66------------------------|
D |-44-44-44-44-----44-44-44-44-----44-44-44-44-----77-77-77-77------------------------|
A |-44-44-44-44-----44-44-44-44-----44-44-44-44-----77-77-77-77------------------------|
E |-22-22-22-22-----22-22-22-22-----22-22-22-22-----55-55-55-55------------------------|


         - [MATTHEW]

    F#          E6  F#              F#          E6  A
e |------------------------------------------------------------------------------------|
B |------------------------------------------------------------------------------------|
G |-3---------------3---------------3---------------3----------------------------------|
D |-4---------------4---------------4---------------4----------------------------------|
A |-4-----------4---4---------------4-----------4---4----------------------------------|
E |-2-----------0---2---------------2-----------0---5----------------------------------|



[LINK] - [CALEB]

  | 1 & 2 & 3 & 4 & | 1 & 2 & 3 & 4 & | 1 & 2 & 3 & 4 & | 1 & 2 & 3 & 4 & |
  |                 |                 |                 |                 |
  |   Em7     G     |   Em7     G     |   Em7     G     |   Em7     G     |
e |-----------------------------------------------------------------------|
B |-----------------------------------------------------------------------|
G |-----------4---4-------------4---4-------------4---4-------------4---4-|
D |-----------5---5-------------5---5-------------5---5-------------5---5-|
A |---5---5---5---5-----5---5---5---5-----5---5---5---5-----5---5---5---5-|
E |---0---0---3---3-----0---0---3---3-----0---0---3---3-----0---0---3---3-|


        - [MATTHEW]

e |------------------------------------------------------------------------------------|
B |------------------5-----------------2-----------------5-----------------2-----------|
G |------------------5-----------------2-----------------5-----------------2-----------|
D |------------------5-----------------2-----------------5-----------------2-----------|
A |-7--------------------7-----------------7-----------------7------------------------|
E |------0--3--0--5---------0--3--0--5--------0--3--0--5--------0--3--0--5-------------|



[VERSE 2] - [CALEB]

  | 1 & 2 & 3 & 4 & | 1 & 2 & 3 & 4 & | 1 & 2 & 3 & 4 & | 1 & 2 & 3 & 4 & 
  |                 |                 |                 |                 
  |   Em7     G     |   Em7     G     |   Em7     G     |   Em7     G     
e |-----------------------------------------------------------------------
B |-----------------------------------------------------------------------
G |-----------4---4-------------4---4-------------4---4-------------4---4-
D |-----------5---5-------------5---5-------------5---5-------------5---5-
A |---5---5---5---5-----5---5---5---5-----5---5---5---5-----5---5---5---5-
E |---0---0---3---3-----0---0---3---3-----0---0---3---3-----0---0---3---3-

    1 & 2 & 3 & 4 & | 1 & 2 & 3 & 4 & | 1 & 2 & 3 & 4 & | 1 & 2 & 3 & 4 & |
                    |                 |                 |                 |
      Em7     G     |   Em7    G      |   Em7     G     |   Em7     G     |
   -----------------------------------------------------------------------|
   -----------------------------------------------------------------------|
   -----------4---4-------------4---4-------------4---4-------------4---4-|
   -----------5---5-------------5---5-------------5---5-------------5---5-|
   ---5---5---5---5-----5---5---5---5-----5---5---5---5-----5---5---5---5-|
   ---0---0---3---3-----0---0---3---3-----0---0---3---3-----0---0---3---3-|


        - [MATTHEW]

e |------------------------------------------------------------------------------------
B |------------------5-----------------2-----------------5-----------------2-----------
G |------------------5-----------------2-----------------5-----------------2-----------
D |------------------5-----------------2-----------------5-----------------2-----------
A |-7--------------------7-----------------7-----------------7------------------------
E |------0--3--0--5---------0--3--0--5--------0--3--0--5--------0--3--0--5-------------

   ------------------------------------------------------------------------------------|
   ------------------5-----------------2-----------------5-----------------2-----------|
   ------------------5-----------------2-----------------5-----------------2-----------|
   ------------------5-----------------2-----------------5-----------------2-----------|
   ----7------------------7-----------------7-----------------7------------------------|
   ------0--3--0--5---------0--3--0--5--------0--3--0--5--------0--3--0--5-------------|



[CHORUS] - [CALEB]
[ Tab from: http://www.guitartabs.cc/tabs/k/kings_of_leon/razz_tab.html ]
    F#              F#              F#              A
e |-22-22-22-22-----22-22-22-22-----22-22-22-22-----55-55-55-55------------------------
B |-22-22-22-22-----22-22-22-22-----22-22-22-22-----55-55-55-55------------------------
G |-33-33-33-33-----33-33-33-33-----33-33-33-33-----66-66-66-66------------------------
D |-44-44-44-44-----44-44-44-44-----44-44-44-44-----77-77-77-77------------------------
A |-44-44-44-44-----44-44-44-44-----44-44-44-44-----77-77-77-77------------------------
E |-22-22-22-22-----22-22-22-22-----22-22-22-22-----55-55-55-55------------------------

    F#              F#              F#              A
   -22-22-22-22-----22-22-22-22-----22-22-22-22-----55-55-55-55------------------------|
   -22-22-22-22-----22-22-22-22-----22-22-22-22-----55-55-55-55------------------------|
   -33-33-33-33-----33-33-33-33-----33-33-33-33-----66-66-66-66------------------------|
   -44-44-44-44-----44-44-44-44-----44-44-44-44-----77-77-77-77------------------------|
   -44-44-44-44-----44-44-44-44-----44-44-44-44-----77-77-77-77------------------------|
   -22-22-22-22-----22-22-22-22-----22-22-22-22-----55-55-55-55------------------------|


         - [MATTHEW]

    F#          E6  F#              F#          E6  A
e |------------------------------------------------------------------------------------
B |------------------------------------------------------------------------------------
G |-3---------------3---------------3---------------4----------------------------------
D |-4---------------4---------------4---------------6----------------------------------
A |-4-----------4---4---------------4-----------4---6----------------------------------
E |-2-----------0---2---------------2-----------0---5----------------------------------

    F#          E6  F#              F#          E6  A
   ------------------------------------------------------------------------------------|
   ------------------------------------------------------------------------------------|
   -3---------------3---------------3---------------4----------------------------------|
   -4---------------4---------------4---------------6----------------------------------|
   -4-----------4---4---------------4-----------4---6----------------------------------|
   -2-----------0---2---------------2-----------0---5----------------------------------|



[CHORUS/SOLO] - [CALEB]

    F#    Em7 A   B       F#    Em7 A   B       F#    Em7 A   B       F#    Em7 A   B
e |-2-----2---------------2-----2---------------2-----2---------------2-----2----------
B |-2-----2---5----7------2-----2---5----7------2-----2---5----7------2-----2---5----7-
G |-3-----3---6----8------3-----3---6----8------3-----3---6----8------3-----3---6----8-
D |-4-----4---7----9------4-----4---7----9------4-----4---7----9------4-----4---7----9-
A |-4-----4---7----9------4-----4---7----9------4-----4---7----9------4-----4---7----9-
E |-2-----0---5----7------2-----0---5----7------2-----0---5----7------2-----0---5----7-

    F#              A     B         F#              A     B
   -22-22-22-22---2-55-55-77-777----22-22-22-22---2-55-55-77-777-----------------------
   -22-22-22-22---2-55-55-77-777----22-22-22-22---2-55-55-77-777-----------------------
   -33-33-33-33---3-66-66-88-888----33-33-33-33---3-66-66-88-888-----------------------
   -44-44-44-44---4-77-77-99-999----44-44-44-44---4-77-77-99-999-----------------------
   -44-44-44-44---4-77-77-99-999----44-44-44-44---4-77-77-99-999-----------------------
   -22-22-22-22---2-55-55-77-777----22-22-22-22---2-55-55-77-777-----------------------

    F#              A     B         F#              A     B
   -22-22-22-22---2-55-55-77-777----22-22-22-22---2-55-55-77-777-----------------------|
   -22-22-22-22---2-55-55-77-777----22-22-22-22---2-55-55-77-777-----------------------|
   -33-33-33-33---3-66-66-88-888----33-33-33-33---3-66-66-88-888-----------------------|
   -44-44-44-44---4-77-77-99-999----44-44-44-44---4-77-77-99-999-----------------------|
   -44-44-44-44---4-77-77-99-999----44-44-44-44---4-77-77-99-999-----------------------|
   -22-22-22-22---2-55-55-77-777----22-22-22-22---2-55-55-77-777-----------------------|


              - [MATTHEW] @ 01:16

e |------------------2---------------------------------------------------------------0-
B |------------------2---------------------------------------------------------------2-
G |----------------------------------------------------------------------6---------2---
D |-4---------------------4-----------------X----4-------------------5/7---7---2/4-----
A |------0--2--0--4----------0--2--0--4--0--X-------0--2--0--4b(4.5)-------------------
E |------------------------------------------------------------------------------------

Don't be too particular with
this part. ---------------------¬
Just try and get a feel for it. |
                                |
                                /
   -22222-22-222/55555-5/7-777---------------------------------------------------------
   -22222-22-222/55555-5/7-777--17b(19)(19)(19)(19)(19)r17(19)(19)r17(19)(19)r17(19)---
   ------------------------------------------------------------------------------------
   ------------------------------------------------------------------------------------
   ------------------------------------------------------------------------------------
   ------------------------------------------------------------------------------------

   ------------------------------------------------------22222-22-222/55555-5/7-777----
   -8b(10)(10)(10)(10)(10)-10b(12)(12)r10(12)(12)-(12)---22222-22-222/55555-5/7-777----
   ------------------------------------------------------------------------------------
   ------------------------------------------------------------------------------------
   ------------------------------------------------------------------------------------
   ------------------------------------------------------------------------------------

   ------------------------------------------------------------------------------------|
   -17b(19)(19)(19)(19)(19)r17(19)(19)r17(19)(19)r17(19)-8b(10)(10)(10)(10)(10)10sb(14)|
   ------------------------------------------------------------------------------------|
   ------------------------------------------------------------------------------------|
   ------------------------------------------------------------------------------------|
   ------------------------------------------------------------------------------------|



[OUTRO] - [CALEB] @ 01:37-¬       THIS PART @ 01:42------¬

                           F#                             A     B
e |------------------------2------------------------------55-55-77-777-----------------
B |------------------------2------------------------------55-55-77-777-----------------
G |------------------------3------------------------------66-66-88-888-----------------
D |------------------------4------------------------------77-77-99-999-----------------
A |------------------------4------------------------------77-77-99-999-----------------
E |------------------------2------------------------------55-55-77-777-----------------

    F#              F#              F#              A
   -22-22-22-22-----22-22-22-22-----22-22-22-22-----55-55-55-55------------------------
   -22-22-22-22-----22-22-22-22-----22-22-22-22-----55-55-55-55------------------------
   -33-33-33-33-----33-33-33-33-----33-33-33-33-----66-66-66-66------------------------
   -44-44-44-44-----44-44-44-44-----44-44-44-44-----77-77-77-77------------------------
   -44-44-44-44-----44-44-44-44-----44-44-44-44-----77-77-77-77------------------------
   -22-22-22-22-----22-22-22-22-----22-22-22-22-----55-55-55-55------------------------

    F#              F#              F#              A
   -22-22-22-22-----22-22-22-22-----22-22-22-22-----55-55-55-55------------------------
   -22-22-22-22-----22-22-22-22-----22-22-22-22-----55-55-55-55------------------------
   -33-33-33-33-----33-33-33-33-----33-33-33-33-----66-66-66-66------------------------
   -44-44-44-44-----44-44-44-44-----44-44-44-44-----77-77-77-77------------------------
   -44-44-44-44-----44-44-44-44-----44-44-44-44-----77-77-77-77------------------------
   -22-22-22-22-----22-22-22-22-----22-22-22-22-----55-55-55-55------------------------

    F#              F#              F#              A
   -22-22-22-22-----22-22-22-22-----22-22-22-22-----55-55-55-55------------------------
   -22-22-22-22-----22-22-22-22-----22-22-22-22-----55-55-55-55------------------------
   -33-33-33-33-----33-33-33-33-----33-33-33-33-----66-66-66-66------------------------
   -44-44-44-44-----44-44-44-44-----44-44-44-44-----77-77-77-77------------------------
   -44-44-44-44-----44-44-44-44-----44-44-44-44-----77-77-77-77------------------------
   -22-22-22-22-----22-22-22-22-----22-22-22-22-----55-55-55-55------------------------

    F#
   -2----------------------------------------------------------------------------------|
   -2----------------------------------------------------------------------------------|
   -3--LET CHORD RING------------------------------------------------------------------|
   -4----------------------------------------------------------------------------------|
   -4----------------------------------------------------------------------------------|
   -2----------------------------------------------------------------------------------|


        - [MATTHEW] @ 01:42

    A     B
e |-55-55-77-777-----------------------------------------------------------------------
B |-55-55-77-777-----------------------------------------------------------------------
G |-66-66-88-888-----------------------------------------------------------------------
D |-77-77-99-999-----------------------------------------------------------------------
A |-77-77-99-999-----------------------------------------------------------------------
E |-55-55-77-777-----------------------------------------------------------------------

    F#          E6  F#              F#          E6  A
   ------------------------------------------------------------------------------------
   ------------------------------------------------------------------------------------
   -3---------------3---------------3---------------4---------------------------------
   -4---------------4---------------4---------------6---------------------------------
   -4-----------4---4---------------4-----------4---6---------------------------------
   -2-----------0---2---------------2-----------0---5---------------------------------

    F#          E6  F#              F#          E6  A
   ------------------------------------------------------------------------------------
   ------------------------------------------------------------------------------------
   -3---------------3---------------3---------------4----------------------------------
   -4---------------4---------------4---------------6----------------------------------
   -4-----------4---4---------------4-----------4---6----------------------------------
   -2-----------0---2---------------2-----------0---5----------------------------------
                                                                                     F#
   ------------------2-------------------------------------------------------------0-2-|
   ------------------2-------------------------------------------------------------2-2-|
   --------------------------------------------------------------------6---------2---3-|
   -4---------------------4--------------------4-------------------5/7---7---2/4-----4-|
   ------0--2--0--4----------0--2--0--4--0--------0--2--0--4b(4.5)-------------------4-|
   ----------------------------------------------------------------------------------2-|






****************************************************************************************
****************************************************************************************
****************************************************************************************
Comments