Kings Of Leon - Pistol Of Fire Chords & Tabs

 

Pistol Of Fire Chords & Tabs

Kings Of Leon Chords & Tabs

Version: 3 Type: Tab 0 ratings
1 star 2 stars 3 stars 4 stars 5 stars
comments

Pistol Of Fire Tab

TITLE:PISTOL OF FIRE
ARTIST:KINGS OF LEON
ALBUM:A-HA SHAKE HEARTBREAK
TABBED BY:GENIUS DE WIT
LONG LIFE FOR KINGS OF LEON BEST BAND EVER!!!!!

Is my first so... here it goes
intro(main riff)
e---------------------------------------------------------------------|
B---------------------------------------------------------------------|
G----------9-9-9-9----------------------------------------------------|
D----------9-9-9-9-------7-7-------5-5--------------------------------|
A----------7-7-7-7-------7-7-------5-5--------------------------------|
E-------0-------------5--5-5----3--3-3--------------------------------|

Pistol of fire,Pistol of fire,Pistol of fire shattered the frame
e---------------------------------------------------------------------|
B---------------------------------------------------------------------|
G----------9-9-9-9----------------------------------------------------|
D----------9-9-9-9-------7-7-------5-5--------------------------------|
A----------7-7-7-7-------7-7-------5-5--------------------------------|
E-------0-------------5--5-5----3--3-3--------------------------------|

Go hug your sister go love your sister go hug your sister one in the same
e---------------------------------------------------------------------|
B---------------------------------------------------------------------|
G----------9-9-9-9----------------------------------------------------|
D----------9-9-9-9-------7-7-------5-5--------------------------------|
A----------7-7-7-7-------7-7-------5-5--------------------------------|
E-------0-------------5--5-5----3--3-3--------------------------------|

Chorus(same riff)

Aiyah where is it you want to take me
Aiyah where is it you want to go Aiyah
Wrapping up the morning's coming
Aiyah home before the rooster crowes

Guitar 2 matthew goes
e------------------------------------------------|
B-----3-------------------3----------------------|
G------4--0------x3--------4--0------------------|
D------------2-----------------------------------|
A------------------------------------------------|
E------------------------------------------------|
[ Tab from: http://www.guitartabs.cc/tabs/k/kings_of_leon/pistol_of_fire_tab_ver_3.html ]
Also you can do it other way(i preffer the other)
e--------------------------------------------------|
B---------------15----------------------15---------|
G-----------------16--12------x3------------16--12-|
D--------------------------14----------------------|
A--------------------------------------------------|
E--------------------------------------------------|
I feel the water down in the cool grass
e---------------------------------------------------------------------|
B---------------------------------------------------------------------|
G----------9-9-9-9----------------------------------------------------|
D----------9-9-9-9-------7-7-------5-5--------------------------------|
A----------7-7-7-7-------7-7-------5-5--------------------------------|
E-------0-------------5--5-5----3--3-3--------------------------------|
down in the meadow under the tree
e---------------------------------------------------------------------|
B---------------------------------------------------------------------|
G----------9-9-9-9----------------------------------------------------|
D----------9-9-9-9-------7-7-------5-5--------------------------------|
A----------7-7-7-7-------7-7-------5-5--------------------------------|
E-------0-------------5--5-5----3--3-3--------------------------------|
its gonna tickle ,your gonna giggle
e---------------------------------------------------------------------|
B---------------------------------------------------------------------|
G----------9-9-9-9----------------------------------------------------|
D----------9-9-9-9-------7-7-------5-5--------------------------------|
A----------7-7-7-7-------7-7-------5-5--------------------------------|
E-------0-------------5--5-5----3--3-3--------------------------------|
its gonna tickle,tickle for free
e---------------------------------------------------------------------|
B---------------------------------------------------------------------|
G----------9-9-9-9----------------------------------------------------|
D----------9-9-9-9-------7-7-------5-5--------------------------------|
A----------7-7-7-7-------7-7-------5-5--------------------------------|
E-------0-------------5--5-5----3--3-3--------------------------------|
then chorus again

I didnt tab the solo yet but im working in it

I THINK THIS TIME I BEAT MY FRIEND ALEX

AHA SHAKE HEARTBREAK IS MORE THAN A CD BELIEVE ME YOU BETTER JOIN US OR YOU WILL DIE 
LIVE TO THE KINGS!!!!!  THANKS

"WONT TAKE LONG LIVIN' IN THE CITY WITH THE SUMMER TO COME OUT"
                                      (ANTHONY CALEB FOLLOWILL 1982-????)
Comments