Kings Of Leon - Pistol Of Fire Chords & Tabs

 

Pistol Of Fire Chords & Tabs

Kings Of Leon Chords & Tabs

Version: 1 Type: Tab 0 ratings
1 star 2 stars 3 stars 4 stars 5 stars
comments

Pistol Of Fire Tab

   
#----------------------------------PLEASE NOTE---------------------------------#
#This file is the author's own work and represents their interpretation of the #
#song. You may only use this file for private study, scholarship, or research. #
#------------------------------------------------------------------------------#

**************************************
*KINGS OF LEON - PISTOL OF FIRE - TAB*
**************************************

Group/Singer Name:      Kings Of Leon
Song:                   "Pistol Of Fire"
Additional Info:        Aha Shake Heartbreak - Track 04
Tuning:                 Standard - [EADGBe]
Tabbed By:              Dean Hill - Comments, Suggestions? the.scotsman@blueyonder.co.uk

b  -  Bend
sb -  Slow Bend
() -  Bracketed numbers are the note you bend up to
h  -  Hammer On
p  -  Pull Off
r  -  Return
/  -  Slide Up
  -  Slide Down
d  -  Strum Down
u  -  Strum Up
PM -  Palm Mute
 -  Natural Harmonics
^  -  Vibrato


[INTRO] - [CALEB]

      E                 A       G       E                 A       G
e |------------------------------------------------------------------------------------
B |------------------------------------------------------------------------------------
G |------------------------------------------------------------------------------------
D |---14--14--14--14----7--7----3--3----14--14--14--14----7--7----5--------------------
A |---14--14--14--14----7--7----3--3----14--14--14--14----7--7----5--------------------
E |-0-12--12--12--12--0-5--5--0-5--5--0-12--12--12--12--0-5--5--0-3--------------------

      E                 A       G       E                 A       G
   ------------------------------------------------------------------------------------|
   ------------------------------------------------------------------------------------|
   ------------------------------------------------------------------------------------|
   ---14--14--14--14----7--7----3--3----14--14--14--14----7--7----5--------------------|
   ---14--14--14--14----7--7----3--3----14--14--14--14----7--7----5--------------------|
   -0-12--12--12--12--0-5--5--0-5--5--0-12--12--12--12--0-5--5--0-3--------------------|


        - [MATTHEW] @ 00:15

PM----------------------------------------------------------------¬
      E                   A       G       E                   A       G
e |------------------------------------------------------------------------------------|
B |-------------------------------------------------------------------3----------------|
G |-------------------------------------------------------------------4----------------|
D |---14---14---14---14---7---7---3---3---14---14---14---14---7---7---5----------------|
A |---14---14---14---14---7---7---3---3---14---14---14---14---7---7---5----------------|
E |-0-12-0-12-0-12-0-12-0-5-0-5-0-5-0-5-0-12-0-12-0-12-0-12-0-5-0-5-0-3----------------|



[VERSE 1] - [CALEB]


      E                 A       G       E                 A       G
e |------------------------------------------------------------------------------------
B |------------------------------------------------------------------------------------
G |------------------------------------------------------------------------------------
D |---14--14--14--14----7--7----3--3----14--14--14--14----7--7----5--------------------
A |---14--14--14--14----7--7----3--3----14--14--14--14----7--7----5--------------------
E |-0-12--12--12--12--0-5--5--0-5--5--0-12--12--12--12--0-5--5--0-3--------------------

      E                 A       G       E                 A       G
   ------------------------------------------------------------------------------------|
   ------------------------------------------------------------------------------------|
   ------------------------------------------------------------------------------------|
   ---14--14--14--14----7--7----3--3----14--14--14--14----7--7----5--------------------|
   ---14--14--14--14----7--7----3--3----14--14--14--14----7--7----5--------------------|
   -0-12--12--12--12--0-5--5--0-5--5--0-12--12--12--12--0-5--5--0-3--------------------|


         - [MATTHEW]

PM------------------------------------------------------------------------¬
      E                   A       G       E                   A       G
e |------------------------------------------------------------------------------------
B |------------------------------------------------------------------------------------
G |------------------------------------------------------------------------------------
D |---14---14---14---14---7---7---3---3---14---14---14---14---7---7---5---5------------
A |---14---14---14---14---7---7---3---3---14---14---14---14---7---7---5---5------------
E |-0-12-0-12-0-12-0-12-0-5-0-5-0-5-0-5-0-12-0-12-0-12-0-12-0-5-0-5-0-3-0-3------------

PM----------------------------------------------------------------¬
      E                   A       G       E                   A       G
   ------------------------------------------------------------------------------------|
   -------------------------------------------------------------------3----------------|
   -------------------------------------------------------------------4----------------|
   ---14---14---14---14---7---7---3---3---14---14---14---14---7---7---5----------------|
   ---14---14---14---14---7---7---3---3---14---14---14---14---7---7---5----------------|
   -0-12-0-12-0-12-0-12-0-5-0-5-0-5-0-5-0-12-0-12-0-12-0-12-0-5-0-5-0-3----------------|



[BRIDGE] - [CALEB]

      E                 A       G       E                 A       G
e |------------------------------------------------------------------------------------
B |------------------------------------------------------------------------------------
G |------------------------------------------------------------------------------------
D |---14--14--14--14----7--7----3--3----14--14--14--14----7--7----5-5------------------
A |---14--14--14--14----7--7----3--3----14--14--14--14----7--7----5-5------------------
E |-0-12--12--12--12--0-5--5--0-5--5--0-12--12--12--12--0-5--5--0-3-3------------------

      E                 A       G       E                 A       G
   ------------------------------------------------------------------------------------|
   ------------------------------------------------------------------------------------|
   ------------------------------------------------------------------------------------|
   ---14--14--14--14----7--7----3--3----14--14--14--14----7--7----5-5------------------|
   ---14--14--14--14----7--7----3--3----14--14--14--14----7--7----5-5------------------|
   -0-12--12--12--12--0-5--5--0-5--5--0-12--12--12--12--0-5--5--0-3-3------------------|


         - [MATTHEW]

PM----------------------------------------------------------------¬
      E                   A       G       E                   A       G
e |-------------------------------------------------------------------3----------------
B |-------------------------------------------------------------------3----------------
G |-------------------------------------------------------------------4----------------
D |---14---14---14---14---7---7---3---3---14---14---14---14---7---7---5----------------
A |---14---14---14---14---7---7---3---3---14---14---14---14---7---7---5----------------
E |-0-12-0-12-0-12-0-12-0-5-0-5-0-5-0-5-0-12-0-12-0-12-0-12-0-5-0-5-0-3----------------

PM----------------------------------------------------------------¬
      E                   A       G       E                   A       G
   ------------------------------------------------------------------------------------|
   ------------------------------------------------------------------------------------|
   ------------------------------------------------------------------------------------|
   ---14---14---14---14---7---7---3---3---14---14---14---14---7---7--------------------|
   ---14---14---14---14---7---7---3---3---14---14---14---14---7---7--------------------|
   -0-12-0-12-0-12-0-12-0-5-0-5-0-5-0-5-0-12-0-12-0-12-0-12-0-5-0-5-0-10b(10.5)--------|



[LINK] - [CALEB]

      E                      A              G
e |------------------------------------------------------------------------------------
B |------------------------------------------------------------------------------------
G |---13---13---13---1313----6--6-6--6-6----4--4-4--4-4--------------------------------
D |---14---14---14---1414----7--7-7--7-7----5--5-5--5-5--------------------------------
A |---14---14---14---1414----7--7-7--7-7----5--5-5--5-5--------------------------------
E |-0-12---12---12---1212----5--5-5--5-5----3--3-3--3-3--------------------------------

      E                      A              G
   ------------------------------------------------------------------------------------
   ------------------------------------------------------------------------------------
   ---13---13---13---1313----6--6-6--6-6----4--4-4--4-4--------------------------------
   ---14---14---14---1414----7--7-7--7-7----5--5-5--5-5--------------------------------
   ---14---14---14---1414----7--7-7--7-7----5--5-5--5-5--------------------------------
   -0-12---12---12---1212----5--5-5--5-5----3--3-3--3-3--------------------------------

      E                      A              G
   ------------------------------------------------------------------------------------
   ------------------------------------------------------------------------------------
   ---13---13---13---1313----6--6-6--6-6----4--4-4--4-4--------------------------------
   ---14---14---14---1414----7--7-7--7-7----5--5-5--5-5--------------------------------
   ---14---14---14---1414----7--7-7--7-7----5--5-5--5-5--------------------------------
   -0-12---12---12---1212----5--5-5--5-5----3--3-3--3-3--------------------------------

      E                      A              G
   ------------------------------------------------------------------------------------|
   ------------------------------------------------------------------------------------|
   ---13---13---13---1313----6--6-6--6-6----4--4-4--4----------------------------------|
   ---14---14---14---1414----7--7-7--7-7----5--5-5--5----------------------------------|
   ---14---14---14---1414----7--7-7--7-7----5--5-5--5----------------------------------|
   -0-12---12---12---1212----5--5-5--5-5----3--3-3--3----------------------------------|


       - [MATTHEW]

e |------------------------------------------------------------------------------------
B |------------------------------------------------------------------------------------
G |------------------------------------------------------------------------------------
D |------------------------------------------------------------------------------------
A |-17-14-10b(11)-----17-14-10b(11)-----17-14-10b(11)----------------------------------
E |---------------12----------------12-------------------------------------------------

   ------------------------------------------------------------------------------------
   ------------------------------------------------------------------------------------
   ------------------------------------------------------------------------------------
   ------------------------------------------------------------------------------------
   -17-14-10b(11)-----17-14-10b(11)-----17-14-10b(11)----------------------------------
   ---------------12----------------12-------------------------------------------------

   ------------------------------------------------------------------------------------
   ------------------------------------------------------------------------------------
   ------------------------------------------------------------------------------------
   ------------------------------------------------------------------------------------
   -17-14-10b(11)-----17-14-10b(11)-----17-14-10b(11)----------------------------------
   ---------------12----------------12-------------------------------------------------

   ------------------------------------------------------------------------------------|
   ------------------------------------------------------------------------------------|
   ------------------------------------------------------------------------------------|
   ------------------------------------------------------------------------------------|
   -17-14-10b(11)-----17-14-10b(11)-----17-14-10b(11)----------------------------------|
   ---------------12----------------12-------------------------------------------------|



[VERSE 2] - [CALEB]


      E                 A       G       E                 A       G
e |------------------------------------------------------------------------------------
B |------------------------------------------------------------------------------------
G |------------------------------------------------------------------------------------
D |---14--14--14--14----7--7----3--3----14--14--14--14----7--7----5--------------------
A |---14--14--14--14----7--7----3--3----14--14--14--14----7--7----5--------------------
E |-0-12--12--12--12--0-5--5--0-5--5--0-12--12--12--12--0-5--5--0-3--------------------

      E                 A       G       E                 A       G
   ------------------------------------------------------------------------------------|
   ------------------------------------------------------------------------------------|
   ------------------------------------------------------------------------------------|
   ---14--14--14--14----7--7----3--3----14--14--14--14----7--7----5--------------------|
   ---14--14--14--14----7--7----3--3----14--14--14--14----7--7----5--------------------|
   -0-12--12--12--12--0-5--5--0-5--5--0-12--12--12--12--0-5--5--0-3--------------------|


         - [MATTHEW]
[ Tab from: http://www.guitartabs.cc/tabs/k/kings_of_leon/pistol_of_fire_tab.html ]
PM------------------------------------------------------------------------¬
      E                   A       G       E                   A       G
e |------------------------------------------------------------------------------------
B |------------------------------------------------------------------------------------
G |------------------------------------------------------------------------------------
D |---14---14---14---14---7---7---3---3---14---14---14---14---7---7---5---5------------
A |---14---14---14---14---7---7---3---3---14---14---14---14---7---7---5---5------------
E |-0-12-0-12-0-12-0-12-0-5-0-5-0-5-0-5-0-12-0-12-0-12-0-12-0-5-0-5-0-3-0-3------------

PM----------------------------------------------------------------¬
      E                   A       G       E                   A       G
   ------------------------------------------------------------------------------------|
   -------------------------------------------------------------------3----------------|
   -------------------------------------------------------------------4----------------|
   ---14---14---14---14---7---7---3---3---14---14---14---14---7---7---5----------------|
   ---14---14---14---14---7---7---3---3---14---14---14---14---7---7---5----------------|
   -0-12-0-12-0-12-0-12-0-5-0-5-0-5-0-5-0-12-0-12-0-12-0-12-0-5-0-5-0-3----------------|



[BRIDGE] - [CALEB]

      E                 A       G       E                 A       G
e |------------------------------------------------------------------------------------
B |------------------------------------------------------------------------------------
G |------------------------------------------------------------------------------------
D |---14--14--14--14----7--7----3--3----14--14--14--14----7--7----5-5------------------
A |---14--14--14--14----7--7----3--3----14--14--14--14----7--7----5-5------------------
E |-0-12--12--12--12--0-5--5--0-5--5--0-12--12--12--12--0-5--5--0-3-3------------------

      E                 A       G       E                 A       G
   ------------------------------------------------------------------------------------|
   ------------------------------------------------------------------------------------|
   ------------------------------------------------------------------------------------|
   ---14--14--14--14----7--7----3--3----14--14--14--14----7--7----5-5------------------|
   ---14--14--14--14----7--7----3--3----14--14--14--14----7--7----5-5------------------|
   -0-12--12--12--12--0-5--5--0-5--5--0-12--12--12--12--0-5--5--0-3-3------------------|


         - [MATTHEW]

PM----------------------------------------------------------------¬
      E                   A       G       E                   A       G
e |-------------------------------------------------------------------3----------------
B |-------------------------------------------------------------------3----------------
G |-------------------------------------------------------------------4----------------
D |---14---14---14---14---7---7---3---3---14---14---14---14---7---7---5----------------
A |---14---14---14---14---7---7---3---3---14---14---14---14---7---7---5----------------
E |-0-12-0-12-0-12-0-12-0-5-0-5-0-5-0-5-0-12-0-12-0-12-0-12-0-5-0-5-0-3----------------

PM----------------------------------------------------------------¬
      E                   A       G       E                   A       G
   ------------------------------------------------------------------------------------|
   ------------------------------------------------------------------------------------|
   ------------------------------------------------------------------------------------|
   ---14---14---14---14---7---7---3---3---14---14---14---14---7---7---5----------------|
   ---14---14---14---14---7---7---3---3---14---14---14---14---7---7---5----------------|
   -0-12-0-12-0-12-0-12-0-5-0-5-0-5-0-5-0-12-0-12-0-12-0-12-0-5-0-5-0-3----------------|



[LINK] - [CALEB]

      E                      A              G
e |------------------------------------------------------------------------------------
B |------------------------------------------------------------------------------------
G |---13---13---13---1313----6--6-6--6-6----4--4-4--4-4--------------------------------
D |---14---14---14---1414----7--7-7--7-7----5--5-5--5-5--------------------------------
A |---14---14---14---1414----7--7-7--7-7----5--5-5--5-5--------------------------------
E |-0-12---12---12---1212----5--5-5--5-5----3--3-3--3-3--------------------------------

      E                      A              G
   ------------------------------------------------------------------------------------
   ------------------------------------------------------------------------------------
   ---13---13---13---1313----6--6-6--6-6----4--4-4--4-4--------------------------------
   ---14---14---14---1414----7--7-7--7-7----5--5-5--5-5--------------------------------
   ---14---14---14---1414----7--7-7--7-7----5--5-5--5-5--------------------------------
   -0-12---12---12---1212----5--5-5--5-5----3--3-3--3-3--------------------------------

      E                      A              G
   ------------------------------------------------------------------------------------
   ------------------------------------------------------------------------------------
   ---13---13---13---1313----6--6-6--6-6----4--4-4--4-4--------------------------------
   ---14---14---14---1414----7--7-7--7-7----5--5-5--5-5--------------------------------
   ---14---14---14---1414----7--7-7--7-7----5--5-5--5-5--------------------------------
   -0-12---12---12---1212----5--5-5--5-5----3--3-3--3-3--------------------------------

      E                      A              G
   ------------------------------------------------------------------------------------|
   ------------------------------------------------------------------------------------|
   ---13---13---13---1313----6--6-6--6-6----4--4-4--4----------------------------------|
   ---14---14---14---1414----7--7-7--7-7----5--5-5--5----------------------------------|
   ---14---14---14---1414----7--7-7--7-7----5--5-5--5----------------------------------|
   -0-12---12---12---1212----5--5-5--5-5----3--3-3--3----------------------------------|


       - [MATTHEW]

e |------------------------------------------------------------------------------------
B |------------------------------------------------------------------------------------
G |------------------------------------------------------------------------------------
D |------------------------------------------------------------------------------------
A |-17-14-10b(11)-----17-14-10b(11)-----17-14-10b(11)----------------------------------
E |---------------12----------------12-------------------------------------------------

   ------------------------------------------------------------------------------------
   ------------------------------------------------------------------------------------
   ------------------------------------------------------------------------------------
   ------------------------------------------------------------------------------------
   -17-14-10b(11)-----17-14-10b(11)-----17-14-10b(11)----------------------------------
   ---------------12----------------12-------------------------------------------------

   ------------------------------------------------------------------------------------
   ------------------------------------------------------------------------------------
   ------------------------------------------------------------------------------------
   ------------------------------------------------------------------------------------
   -17-14-10b(11)-----17-14-10b(11)-----17-14-10b(11)----------------------------------
   ---------------12----------------12-------------------------------------------------

   ------------------------------------------------------------------------------------|
   ------------------------------------------------------------------------------------|
   ------------------------------------------------------------------------------------|
   ------------------------------------------------------------------------------------|
   -17-14-10b(11)-----17-14-10b(11)-----17-14-10b(11)----------------------------------|
   ---------------12----------------12-------------------------------------------------|



[SOLO] - [CALEB]

    C#                          F#       E*
e |--9--9----9-9--9---9-9--9-9--2-2---22-0--00-00--------------------------------------
B |--9--9----9-9--9---9-9--9-9--2-2---22-0--11-11--------------------------------------
G |-10-10---1010-10--1010-1010--3-3---33-1--11-11--------------------------------------
D |-11-11---1111-11--1111-1111--4-4---44-2--22-22--------------------------------------
A |-11-11---1111-11--1111-1111--4-4---44-2--22-22--------------------------------------
E |--9--9----9-9--9---9-9--9-9--2-2---22-0--00-00--------------------------------------

    C#                          F#       E*
   --9--9----9-9--9---9-9--9-9--2-2---22-0--00-00--------------------------------------
   --9--9----9-9--9---9-9--9-9--2-2---22-0--11-11--------------------------------------
   -10-10---1010-10--1010-1010--3-3---33-1--11-11--------------------------------------
   -11-11---1111-11--1111-1111--4-4---44-2--22-22--------------------------------------
   -11-11---1111-11--1111-1111--4-4---44-2--22-22--------------------------------------
   --9--9----9-9--9---9-9--9-9--2-2---22-0--00-00--------------------------------------

    C#                          F#       E*
   --9--9----9-9--9---9-9--9-9--2-2---22-0--00-00--------------------------------------
   --9--9----9-9--9---9-9--9-9--2-2---22-0--11-11--------------------------------------
   -10-10---1010-10--1010-1010--3-3---33-1--11-11--------------------------------------
   -11-11---1111-11--1111-1111--4-4---44-2--22-22--------------------------------------
   -11-11---1111-11--1111-1111--4-4---44-2--22-22--------------------------------------
   --9--9----9-9--9---9-9--9-9--2-2---22-0--00-00--------------------------------------

    C#                          F#       E*
   --9--9----9-9--9---9-9--9-9--2-2---22-0--00-00--------------------------------------|
   --9--9----9-9--9---9-9--9-9--2-2---22-0--11-11--------------------------------------|
   -10-10---1010-10--1010-1010--3-3---33-1--11-11--------------------------------------|
   -11-11---1111-11--1111-1111--4-4---44-2--22-22--------------------------------------|
   -11-11---1111-11--1111-1111--4-4---44-2--22-22--------------------------------------|
   --9--9----9-9--9---9-9--9-9--2-2---22-0--00-00--------------------------------------|


       - [MATTHEW]

e |-------------------------------------------------------12------12---12b(14)r12------
B |--------9-------9-------9-------9---------9---121212-------12------------------9----
G |-11b(13)-11b(13)-11b(13)-11b(13)-11b(13)-------------13--13--13--13-----------------
D |------------------------------------------------------------------------------------
A |------------------------------------------------------------------------------------
E |------------------------------------------------------------------------------------

   -----------9-----------------------------------------------------------------------
   --12sb(14)-------9---9---12--9--9---------------------------------------------------
   --------------------11-9----11--9------9--9-11-9-11b(13)r11p9---9b(10.5)------------
   -----------------------------------9h11-11-------------------11---------------------
   ------------------------------------------------------------------------------------
   ------------------------------------------------------------------------------------

   --------------------------9-12--11-9--12sb(14)--------------------------------------|
   --------9--9--12b(14)-12------------------------------------------------------------|
   -11b(13)----------------------------------------------------------------------------|
   ------------------------------------------------------------------------------------|
   ------------------------------------------------------------------------------------|
   ------------------------------------------------------------------------------------|


[OUTRO] - [CALEB]


      E                 A       G       E                 A       G
e |------------------------------------------------------------------------------------
B |------------------------------------------------------------------------------------
G |------------------------------------------------------------------------------------
D |---14--14--14--14----7--7----3--3----14--14--14--14----7--7----5-5------------------
A |---14--14--14--14----7--7----3--3----14--14--14--14----7--7----5-5------------------
E |---12--12--12--12----5--5----5--5----12--12--12--12----5--5----3-3------------------

      E                 A       G       E
   ------------------------------------------------------------------------------------|
   ------------------------------------------------------------------------------------|
   -----------------------------4----/--13---------------------------------------------|
   ---14--14--14--14----7--7----3----/--14---------------------------------------------|
   ---14--14--14--14----7--7----3----/--14---------------------------------------------|
   ---12--12--12--12----5--5----5----/--12---------------------------------------------|


        - [MATTHEW] @ 02:10

      E                     A         G         E                     A        G    E
e |---------------------------------------------------------------------------------12-|
B |----------------------------------------------------------------------------3--/-12-|
G |----------------------------------------------------------------------------4--/-13-|
D |---14---14---14---14-----7---7-----3---3-----14---14---14---14-----7---7----5--/-14-|
A |---14---14---14---14-----7---7-----3---3-----14---14---14---14-----7---7----5--/-14-|
E |-0-12-0-12-0-12-0-12---0-5-0-5---0-5-0-5---0-12-0-12-0-12-0-12---0-5-0-5-0--3--/-12-|






****************************************************************************************
****************************************************************************************
****************************************************************************************
Comments