Kings Of Leon - Mollys Chambers Chords & Tabs

 

Mollys Chambers Chords & Tabs

Kings Of Leon Chords & Tabs

Version: 4 Type: Tab 0 ratings
1 star 2 stars 3 stars 4 stars 5 stars
comments

Mollys Chambers Tab

   


Guitar Tabs / K / Kings Of Leon / Mollys Chambers    Rating :

 0


INTRO
guitar.1
  Gb
e----------------|
B----------------|
G----------------|
D-4--4-4-4-4-4-4-| x8
A-4--4-4-4-4-4-4-|
E-2--2-0-2-0-2-0-|
  \  \ \ \ \ \ \

gtr.2 (lead)
  Gb
e-------|
B-2-2-2-|
G-3-3-3-|
D-4-4-4-|
A-4-4-4-|
E-------|
  \ / \

VERSE
gtr.1

e---------------|
B---------------|
G---------------|
D-4---4-4-4-4-4-| x16
A-4---4-4-4-4-4-|
E-2---0-2-0-2-0-|
  \   \ \ \ \ \

CHORUS
Guitar 1:

  B       A       Gb
e-------------------------------|
B-------------------------------|
G-8-8-8-8-6-6-6-6-3-3-3-3-3-3-3-|
D-9-9-9-9-7-7-7-7-4-4-4-4-4-4-4-|
A-9-9-9-9-7-7-7-7-4-4-4-4-4-4-4-|
E-------------------------------|
  \ \ \ \ \ \ \ \ \ \ / \ / \ /

 B       D           Gb
-------------------------------------------------|
-------------------------------------------------|
-8-8-8-8-11-11-11-11-3-3-3-3-3-3-3-3-3-3-3-3-3-3-|
-9-9-9-9-12-12-12-12-4-4-4-4-4-4-4-4-4-4-4-4-4-4-|
-9-9-9-9-12-12-12-12-4-4-4-4-4-4-4-4-4-4-4-4-4-4-|
-------------------------------------------------|
 \ \ \ \ \  \  \  \  \ \ / \ / \ / \ \ / \ / \ /

VERSE 2

e-2--0-2-0-2-0-|
B--------------|
G--------------|
D--------------|
A--------------|
E--------------|
[ Tab from: http://www.guitartabs.cc/tabs/k/kings_of_leon/mollys_chambers_tab_ver_4.html ]
CHORUS
e-2--0-2-0-2-0-|
B--------------|
G--------------|
D--------------|
A--------------|
E--------------|

SOLO
guitar.2
Forgive me for the solo i just had to guess on it.
e-14b-14b-14b-14b-14-12--------------------------------|
B-----------------------14-14-12-------------12b-15-12-|
G--------------------------------15-14p13-14-----------|
D------------------------------------------------------|
A------------------------------------------------------|
E------------------------------------------------------|

----------------------|
----------------------|
-15-14-12-14-15-15p14-|
----------------------|
----------------------|
----------------------|

CHORUS
guitar:
e---------------------|
B---------------------|
G-8--6--3-3-3-3-3-3-3-|
D-9--7--4-4-4-4-4-4-4-|
A-9--7--4-4-4-4-4-4-4-|
E---------------------|
  \  \  \ \ / \ / \ /

-----------------------------------|
-----------------------------------|
-8-8-8-8-11-11-11-11-3-3-3-3-3-3-3-|
-9-9-9-9-12-12-12-12-4-4-4-4-4-4-4-|
-9-9-9-9-12-12-12-12-4-4-4-4-4-4-4-|
-----------------------------------|
 \ \ \ \ \  \  \  \  \ \ / \ / \ /

-------------------------------|
-------------------------------|
-8-8-8-8-6-6-6-6-3-3-3-3-3-3-3-|
-9-9-9-9-7-7-7-7-4-4-4-4-4-4-4-|
-9-9-9-9-7-7-7-7-4-4-4-4-4-4-4-|
-------------------------------|


------------------------|
------------------------|
-8-8-8-8-11-11-11-11-11-|
-9-9-9-9-12-12-12-12-12-|
-9-9-9-9-12-12-12-12-12-|
------------------------|

guitar.2:
e-2--0-2-0-2-0-|
B--------------|
G--------------|
D--------------|
A--------------|
E--------------|
Comments